Инструмент: Гитара (6-ти струнная) поменять
Строй: Standart (E A D G B E) поменять
Без каподастра поменять
Вступление Gm  F  Cm  A#  F 

2-------------------------3-4--------3-----------|
3-----------3-----------5----------3----3------2-|
4-------5-5-------1---5----------3-----------3---|
5----5----------3----3---------1-----------3-----|
6--3----------1--------------------------1-------|

 1 куплет
 Gm 
Мы штрихи одного рисунка.
 F 
Чёрно-белая графика.
Cm 
Безликие тени на пустых перекрёстках.
A#                             F 
В сетях городского трафика.
Когда ночь остановит свой взгляд.
На созвучие сказанных слов.
Поминутными мутными формами в воздухе,
Разольется любовь.
Припев
Gm                           Dm 
Снова бегут по небу облака.
Cm                         A# 
Мягкими перьями белыми 
F 
Укрывает внизу города.
В этих районах мы скроемся наверника,
Наши сердца не разлучит никто,
Никогда никогда.

2 куплет
Мы все те же, что месяцем раньше,
Только взглядом уже не совсем.
Чёрным по белому, белым по чёрному.
Краски снова станут ничем.
Распадаясь, становясь
Чётными и нечётными.
Радиоэфирными волнами.
Нас кто то встретит ещё.

Проигрыш по аккордам припева.
1--1h3-3-1--------------------------------|
2---------3-1-3-1-1-3/6-1-3--3-3/6-3-1----|
3------------------------3------------3-0-|

  3 куплет
Ледяные камни, горячее сердце.
В нас топят надежду, но мы 
Верим, как прежде.
Руки Вселенной держат нас,
И льётся любовь прямо сейчас.
Разольётся любовь, моя любовь.
Разольётся по венам моя любовь.
Твоё сердце согреется моя весна.
Разольётся любовь не напрасно.            

© Авторские права на тексты, песни, видео и другую представленную информацию принадлежат правообладателям. Аккорды, табы, gtp и тексты песен взяты из открытых источников.
Возрастная категория сайта: 18+
Тексты некоторых песен могут содержать нецензурные выражения, брань.
© 2020 guitar-chords.ru