Вступление 1
Бас
3|--0-2-2---0-2-2---0-2-2---0-2-2---0-2-2---0-2-2---0-2-2---0-2-2

Акустика
E|------------------------------------2---------------2----------
B|------------------------------------3---------------3----------
G|------------------------------------4---------------4----------

Вступление 2

Бас
3|--2-3-2---3-5-3---5-7-5---7-9-7-5-3-2--

Акустика
E|----2-------2-----2-2-------2-----2----
B|---------------------------------------
G|--4-------4---------------4-----4------
Бас
3|--2-3-3---3-5-5---5-7-7---7-9-7-5-3-2--

Акустика
E|----2-------2-----2-2-------2-----2----
B|---------------------------------------
G|--4-------4---------------4-----4------

Бас
3|--2-3-3---3-5-5---5-7-7---7-9-7-5-3-2--

Акустика
E|----2-------3-------0-------2----------
B|------3-------3---------------2--------
G|--4-------3-------2-------3------------

Куплет 1

Бас
3|--2-3-3---3-5-5---5-7-7---7-9-7-5-3-2--

Акустика
E|----2-------3-------0-------2----------
B|------3-------3---------------2--------
G|--4-------3-------2-------3------------

    Зо-рь-кие о-окна      Кто согреет

Бас
3|--2-3-2---3-5-3---5-7-5---7-9-7-5-3-2--

Акустика
E|----2-------3-------0-------2----------
B|------3-------3---------------2--------
G|--4-------3-------2-------3------------

    Зо-рь-кие о-окна
Бас
3|--2---3---2---1---2--1--2--1--2--1

Акустика
E|----2-------2-----2-2-------2-----2----
B|---------------------------------------
G|--4-------4---------------4-----4------
    По-жа-лей беззвучными сло-ва-а-ми
E|----2-------2-----2-2-------2-----2----
B|---------------------------------------
G|--4-------4---------------4-----4------
    Сво-о-е-е-го оловянного Христа

Припев:
Бас
3|--2-3-3---3-5-5---5-7-7---7-9-7-5-3-2--

Акустика
E|----2-------3-------0-------2----------
B|------3-------3---------------2--------
G|--4-------3-------2-------3------------
    Да-да-да-да-дай Да-да-да-да-дай

Дальше все по аналогии


© Авторские права на тексты, песни, видео и другую представленную информацию принадлежат правообладателям. Аккорды, табы, gtp и тексты песен взяты из открытых источников.
Возрастная категория сайта: 18+
Тексты некоторых песен могут содержать нецензурные выражения, брань.
© 2020 guitar-chords.ru