Метель (табы)

E||--------0-------------------------------------2--------|
B||--------0------------1--------------------------3------|
G||-----------0------------0-------------------2-----2----|
D||-----2-------0----2-----------0----------0----------0--|
A||---------------3-------------------0-2-3---------------|
E||--0------------------------3-----3---------------------|

E||--------0------------0-------------3----------2--------|
B||--------0---------------1------------3------3---3------|
G||-----------0---------------3h-4--0-------2--------2----|
D||-----2-------0----2--------4h-5--------0------------0--|
A||---------------3---------------------------------------|
E||--0----------------------------------------------------|


© Авторские права на тексты, песни, видео и другую представленную информацию принадлежат правообладателям. Аккорды, табы, gtp и тексты песен взяты из открытых источников.
Возрастная категория сайта: 18+
Тексты некоторых песен могут содержать нецензурные выражения, брань.
© 2020 guitar-chords.ru