Лолита

Вступление: (Аккомпанемент играет что-то вроде аккорда Am  в VII позиции,
тех кто не знает, он выглядит так:

E|-8------(помутите что нибудь c арпеджио и всё будет классно)
H|-10-----------------------------------------------------|
G|-9------------------------------------------------------|
D|-7------------------------------------------------------|
A|-x------------------------------------------------------|
E|-x------------------------------------------------------|

E|--0-0-5-7-8-5--10----|--10-10-8-7-5---------------------|
H|------------------6--|--------------8-6-5---------------|
G|---------------------|--------------------5-------------|
D|---------------------|----------------------------------|
A|---------------------|----------------------------------|
E|---------------------|----------------------------------|

                                            tremolo
E|--8-8-7-5------------|----------------(0-0-0-0-0-0-0)---||
H|----------8-6-5------|---5-5-5-5-5-5---5-5-5-5-5-5-5----||
G|----------------7-4--|----------------------------------||
D|---------------------|----------------------------------||
A|---------------------|----------------------------------||
E|---------------------|----------------------------------||

И поехали...

E||--0-0-5-7-8-5-/10----|--10-10-8-7-5---------------------|
H||------------------6--|--------------8-6-5h6p5-----------|
G||-*-------------------|------------------------5---------|
D||-*-------------------|----------------------------------|
A||---------------------|----------------------------------|
E||---------------------|----------------------------------|

E|--8-8-7-5------------|--7-7-5---------------------------||
H|----------8-6-5------|--------8-6-5---------------------||
G|----------------7-4--|--------------5-7---------------*-||
D|---------------------|------------------7-------------*-||
A|---------------------|----------------------------------||
E|---------------------|----------------------------------||

E||--5-5-5--------------|--5-5-8-7-5-0---------------------|
H||--------8-6---5-6-8--|--------------1-------------------|
G||-*----------7--------|-------------(5)------------------|
D||-*-------------------|----------------------------------|
A||---------------------|----------------------------------|
E||---------------------|----------------------------------|

                                    (gliss)
E|-0-5--5-5-5--5-5-4-5-|--7-------------------------------||
H|---------------------|----6-5h6p5-(\\-/)----------------||
G|---------------------|-----------7p5p4h5--------------*-||
D|---------------------|-------------------7-(7)--------*-||
A|---------------------|----------------------------------||
E|---------------------|----------------------------------||

То, что в скобках можно и не играть.
Удачи!


© Авторские права на тексты, песни, видео и другую представленную информацию принадлежат правообладателям. Аккорды, табы, gtp и тексты песен взяты из открытых источников.
Возрастная категория сайта: 18+
Тексты некоторых песен могут содержать нецензурные выражения, брань.
© 2020 guitar-chords.ru