E---------------------------------------------------|
B-----0-----0-1h3p1-0-----0-1h3p1-0-----0-0h1p0-----|
G---2-----2-------------2-------------2---------2---| } 2 раза
D-2-----2-----3-------3-------------3-------------2-|
A-0---------------------------------------0---------|
E---------------------------------------------------|

E-------0-----1-0---0-------------------------------|
B----013--3-1-----3---3-1-3-1-0-1-0-----------------|
G-2-2-------------------------------0-2-------------|
D-------------0-------------------------------2-----|
A-0-----------------3-----------------0---0-3-------|
E-------------------------3-------------------------|

E-------0-----1-0---0-------------------1---1-------|
B----013--3-1-----3---3-1-3-1-0-1-0-------1---------|
G-2-2-------------------------------0-2-------------|
D-------------0-------------------------------------|
A-0-----------------3-----------------0-------------|
E-------------------------3---------------0---------|

Далее, способы игры аккордов:
   Am        D         Fmaj      F         G 
---1---1- ---2---2- ---0---0- ---1---1- ---3---3-
-----1--- -----3--- -----1--- -----1--- -----3---
-2------- -2------- -2------- -2------- -4-------
--------- -0------- -3------- --------- ---------
-0------- -----0--- -----0--- -3------- -5-------
-----0--- --------- --------- -----1--- -----3---

Потихоньку заменять боем к концу.
Можно продолжать играть под вторую гитару с боем.

Am          D     Fmaj             Am 
Маленькая девочка со взглядом волчицы,
           D    Fmaj      Am 
Я тоже когда-то был самоубийцей.
          D  Fmaj              Am    F 
Я тоже лежал в окрававленной ванне,
            Am G          Am 
И молча вкушал  дым марихуаны.
Ты видишь, как мирно пасутся коровы,
И как лучезарны хрустальные горы.
Мы вырвем столбы, мы отменим границы.
О, маленькая девочка со взглядом волчицы...

Пошел небольшой соляк. Изображать его лучше,
используя бой там, где идут подритмовки по средним
струнам. По этим табам, да еще и на одной гитаре его
можно действительно только "изобразить" :)

E---------0---1-----------1---0-----------0---1----------1---3-------3---3h5p3|
B---0-1-3-------1-1---------1---2---0-1-3-------1-1--------1-----3------------|
G-2---------2---2---2-2-----2---2-2---------2---2---2-2----2---4---4---4------|
D-----------2-------3---3-------------------2-------3---3------5---5---5------|
A-0---------------3-----------0----------------------------------5-------5----|
E---------0---1-------1-------------------0---1-------1------3-------3--------|

-5-------5-------  И входим
---5-5-----5-5---  в куплет
---5---5---5---5-  (уже боем)
-------7-------7-
-----7-------7---
-5-------5-------

        D ... 
Спи сладким сном, не помни о прошлом.
Дом, где жила ты, пуст и заброшен.
И мхом обрастут плиты гробницы
Маленькой девочки со взглядом волчицы...

На последнем Am  возвращаемся с боя к
начальному варианту перебора и утихаем.


© Авторские права на тексты, песни, видео и другую представленную информацию принадлежат правообладателям. Аккорды, табы, gtp и тексты песен взяты из открытых источников.
Возрастная категория сайта: 18+
Тексты некоторых песен могут содержать нецензурные выражения, брань.
© 2021 guitar-chords.ru