Broken

e|---------------------------------------------------|
B|---------------------------------------------------|
G|--xxx-77-xx-777-55-33-xx-333-5--77-xx-777-101010---|
D|--xxx-77-xx-777-55-33-xx-333-5--77-xx-777—101010---|
A|--xxx-55-xx-555-33-11-xx-111-3--55-xx-555--8-8-8---|
e|---------------------------------------------------|

e|-----------------|
B|-----------------|
G|---33-xx-333-5---|
D|---33-xx-333-5---|
A|---11-xx-111-3---|
e|-----------------|

Варианты:    
e|--------------------------------------------------------|
B|--------------------------------------------------------|
G|------2-------------------------------------------------|
D|--0-3---3---0h2h3---0h2h3----0h2h3--------0—3--3---(X5)-|
A|---------------------------1--------1h3-----------------|
e|--------------------------------------------------------|

~~Играть 5 раз на шестой (1h3), потом:

Версия 1:    e|--------------------------------------------------------|
B|--------------------------------------------------------|
G|-xxx-77-xx-777-55-33-xx-333-5--77-xx-777-55-33-xx-333-5-|
D|-xxx-77-xx-777-55-33-xx-333-5--77-xx-777-55-33-xx-333-5-|
A|-xxx-55-xx-555-33-11-xx-111-3--55-xx-555-33-11-xx-111-3-|
e|--------------------------------------------------------|

e|-------------------------------------------------|
B|-------------------------------------------------|
G|-77-xx-777-101010-33-xx-333-5--77-xx-777-101010--|
D|-77-xx-777—101010-33-xx-333-5--77-xx-777-101010--|
A|-55-xx-555--8-8-8-11-xx-111-3--55-xx-555--8-8-8--|
e|-------------------------------------------------|

e|-----------------|
B|-----------------|
G|---33-xx-333-5---|
D|---33-xx-333-5---|
A|---11-xx-111-3---|
e|-----------------|

Играть вариант 1, 4 раза
Играть версию 1, потом:

Версия 2:    e|-----------------------------------------|
B|-----------------------------------------|
G|---7777/1010--1212---7777/1010--99-------|
D|---7777/1010—-1212---7777/1010--99--(X4)-|
A|---5555/-8-8--1010---5555/-8-8--77-------|
e|-----------------------------------------|

Версия 3:    e|--------------------------------------------------------|
B|--------------------------------------------------------|
G|----------------------------------------55-33-22-33-----|
D|--00-33-22-33-55-33-22-00---00-33-22-33------------(X4)-|
A|--------------------------------------------------------|
e|--------------------------------------------------------|

Концовка:    
B|--9--|
G|--9--|
D|--7--|

© Авторские права на тексты, песни, видео и другую представленную информацию принадлежат правообладателям. Аккорды, табы, gtp и тексты песен взяты из открытых источников.
Возрастная категория сайта: 18+
Тексты некоторых песен могут содержать нецензурные выражения, брань.
© 2020 guitar-chords.ru