Tab key:
~ = hold note
 = slide down an unspecified amount

Intro - A (w/ distortion)
e---------------------------------------------------------------------------
B---------------------------------------------------------------------------
G--------4------------------------------------------------------------------
D--------5-----------------5--3--7------------------------------------------
A--5--3--5--------5--3-----5--3--7------------------------------------------
E--------3--------------5--3--1--5------------------------------------------

Intro - B (w/ distortion)
e---------------------------------------------------------------------------
B---------------------------------------------------------------------------
G---------------------------------------------------------------------------
D-8--8--8--8--8--8--8--8--7~~----------------------------------------------
A-8--8--8--8--8--8--8--8--7~~----------------------------------------------
E-6--6--6--6--6--6--6--6--5~~----------------------------------------------

Verse Riff (w/ distortion)
e---------------------------------------------------------------------------
B---------------------------------------------------------------------------
G---------------------------------------------------------------------------
D--------------------------------------------3--3---------------------------
A--5--3--5--3-----5--3--5--3-----5--3--5--3--------3--5---------------------
E---------------------------------------------------------------------------

Chorus Riff (w/ distortion)
e---------------------------------------------------------------------------
B---------------------------------------------------------------------------
G---------------------------------------------------------------------------
D--------------4-----------------4--4--x--4--4------------------------------
A--7--5--------4-----7--5--------4--4--x--4--4------------------------------
E--------7-5-3-2-----------7-5-3-2--2--x--2--2------------------------------

Ending (w/ distortion)
e---------------------------------------------------------------------------
B---------------------------------------------------------------------------
G---------------------------------------------------------------------------
D--4---4--4-4--4--4-4--4--4-4-----------------------------------------------
A--4---4--4-4--4--4-4--4--4-4-----------------------------------------------
E--2---0--2-2--0--2-2--0--2-2-----------------------------------------------

Lyrics/Song Structure:
Play Intro - A over:
Play Intro - B (x1)
Play Verse Riff over:
Play Chorus Riff over:
Play Verse Riff over:
Play Chorus Riff over:
Play Verse Riff over:
Play Chorus Riff over:
Play Ending over:
Song ends: D5/A  (x0023x)

© Авторские права на тексты, песни, видео и другую представленную информацию принадлежат правообладателям. Аккорды, табы, gtp и тексты песен взяты из открытых источников.
Возрастная категория сайта: 18+
Тексты некоторых песен могут содержать нецензурные выражения, брань.
© 2020 guitar-chords.ru