Intro
 pm____________
e----------------------------------------
B----------------------------------------
G----------------------------------------
D--6-6-6-6-6-6-6-6-6-6-6-6-6-6-6-6-------
A--6-6-6-6-6-6-6-6-6-6-6-6-6-6-6-6-------
E--4-4-4-4-4-4-4-4-4-4-4-4-4-4-4-4-------

Verse (a)
e--------------------------------------------------------------------------------------------
B--------------------------------------------------------------------------------------------
G--------3--3-3---------3--3-3---------3--3-3---------3--5-3---------3--3-3---------3--3-3---
D--2-3-2-3--3-3-2-2-3-2-3--3-3-2-2-3-2-3--3-3-2-2-3-2-3--5-3-2-2-3-2-3--3-3-2-2-3-2-3--3-3---
A--2-3-2-1--1-1-2-2-3-2-1--1-1-2-2-3-2-1--1-1-2-2-3-2-1--3-1-2-2-3-2-1--1-1-2-2-3-2-1--1-1---
E--0-1-0--------0-0-1-0--------0-0-1-0--------0-0-1-0--------0-0-1-0--------0-0-1-0----------

e------------------
B------------------
G----------3--3-3\\
D--2-2-3-2-3--3-3\\
A--2-2-3-2-1--1-1\\
E--0-0-1-0---------

Verse (b)
e-------------------------------------------------------------------------------
B----------------------------------------------------5--------------------------
G--------------3/4-------------3/4-------------3/4-----3------------------------
D--2-4/5-7-5-4-3/4-2-4/5-7-5-4-3/4-2-4/5-7-5-4-3/4-2-----2-2-3-2-0-0-2-0--------
A--2-4/5-7-5-4-1/2-2-4/5-7-5-4-1/2-2-4/5-7-5-4-1/2-2---------------------3-4-3-2
E--0-2/3-5-3-2-----0-2/3-5-3-2-----0-2/3-5-3-2-----0----------------------------

You play verse b 2wice and the 2nd time, that little thingy at the end is different.
It goes like this:
e-------------------------
B--5----------------------
G----3-------0-2-3-5-7-9\\
D------2-2-4--------------
A-------------------------
E-------------------------

Verse (c)                               Bridge                                  Ending
                        9x                               pm___
e-------------------            e-------------------------              e-----------
B-------------------            B-------------------------              B-----------
G------------2---2--            G--------2-3-4\2-2-2-2-2--              G--------3--
D--4-4-4-4-4-0-4-0--            D--2-4-5-2-3-4\2-2-2-2-2--              D--2-3-2-3--
A--2-2-2-2-2-0-2-0--            A--2-4-5-0-1-2\0-0-0-0-0--              A--2-3-2-1--
E--2-2-2-2-2---2----            E--0-2-3------------------              E--0-1-0----

© Авторские права на тексты, песни, видео и другую представленную информацию принадлежат правообладателям. Аккорды, табы, gtp и тексты песен взяты из открытых источников.
Возрастная категория сайта: 18+
Тексты некоторых песен могут содержать нецензурные выражения, брань.
© 2020 guitar-chords.ru