WN = Whole Note (4 beats)
HN = Half Note (2 beats)
QN = Quarter Note (1 beat)
  = slide down
/  = slide up
P.M. = Palm Mute

Intro (Gtr 1)
e|------------------------------------------------|
B|-----------3---------------------------------0--|
G|--------4-----4-----0-----------0----------2----|
D|-----4-----------4-----------0----------2-------|
A|--2-----------------------2----------0----------|
E|------------------------3-----------------------|

Intro (Gtr 2 w/ Gtr 1)
   Bm     G   A     Bm               G    A 
e|--------3---0----------------------3----0-----------------|
B|-3------3---2-----3----------------3----2-----------------|
G|-4------0---2-----4----------------0----2-----------------|
D|-4------0---2-----4----------------0----2-----------------|
A|-2------2---0-----3----------------2----0-----------------|
E|--------3--------------------------3----------------------|
   WN    HN  HN    WN               HN   HN

Interlude
                                    let ring-------------
e|---------------------------------------------2------------|
B|------3----2---3-------------3----2---------------2-------|
G|--4----------------2------------------2-------------------|
D|----------------------------------------------------------|
A|----------------------------------------------------------|
E|----------------------------------------------------------|

Chorus
e|--------------------------------------------------------------------|
B|--------------------------------------------------------------------|
G|--------------------------------------------------------------------|
D|-9--------9--------9--------9---5--------5--------7--------7-------|
A|-9--------9--------9--------9---5--------5--------7--------7-------|
E|-7--7--7--7--7--7--7--7--7--7---3--3--3--3--3--3--5--5--5--5--5--5-|
      |--|     |--|     |--|          |--|     |--|     |--|     |--|
      P.M.     P.M.     P.M.          P.M.     P.M.     P.M.     P.M.
(Well, if I go crazy, then will you still call me Superman?)
e|--------------------------------------------------------------------|
B|--------------------------------------------------------------------|
G|--------------------------------------------------------------------|
D|-9--------9--------9--------9---2--------2-------------------------|
A|-9--------9--------9--------9---2--------2-----------5--4----------|
E|-7--7--7--7--7--7--7--7--7--7---0--0--0--0--0--0--2--------0-------|
      |--|     |--|     |--|          |--|     |--|
      P.M.     P.M.     P.M.          P.M.     P.M.
(If I'm alive and well will you be there holding my hand?)
e|--------------------------------------------------------------------|
B|--------------------------------------------------------------------|
G|--------------------------------------------------------------------|
D|-9--------9--------9--------9---5--------5--------7--------7-------|
A|-9--------9--------9--------9---5--------5--------7--------7-------|
E|-7--7--7--7--7--7--7--7--7--7---3--3--3--3--3--3--5--5--5--5--5--5-|
      |--|     |--|     |--|          |--|     |--|     |--|     |--|
      P.M.     P.M.     P.M.          P.M.     P.M.     P.M.     P.M.
(I'll keep you by my side with my superhuman might-)
e|--------------------------------------------------------------------|
B|--------------------------------------------------------------------|
G|--------------------------------------------------------------------|
D|-9--------9--------9--------9--9-9--2-2-2-2-2-2-2-2-4-4-4-4-4-4-4-4-|
A|-9--------9--------9--------9--9-9--2-2-2-2-2-2-2-2-4-4-4-4-4-4-4-4-|
E|-7--7--7--7--7--7--7--7--7--7--7-7--0-0-0-0-0-0-0-0-2-2-2-2-2-2-2-2-|
      |--|     |--|     |--|
      P.M.     P.M.     P.M.
(-Kryptonite)
Interlude (Gtr 1)
e|-------------------------|
B|-------------------------|
G|-------------------------|
D|---9---------------------|
A|---9---------------------|
E|---7---------------------|
(Hold for 16 beats (4 measures))
Interlude (Gtr 2 Instrumental)
e|--------------------------------------------------------------------|
B|--------------------------------------------------------------------|
G|--------------------------------------------------------------------|
D|--------------------------------------------------------------------|
A|-------4---5---4---5---4-------------/7---5---4---5---4-------------|
E|--7-------------------------------------------------------5---------|

e|--------------------------------------------------------------------|
B|--------------------------------------------------------------------|
G|--------------------------------------------------------------------|
D|--------------------------------------------------------------------|
A|----------------------------------5-7-5-7-5-7-5-7-4-5-4-5-4-5-4-0---|
E|--7--7--5---5-7----5--5---7--7--------------------------------------|
                                    |------------------------------|
                                                   P.M.
e|--------------------------------------------------------------------|
B|--------------------------------------------------------------------|
G|--------------------------------------------------------------------|
D|---9----------------------------------------------------------------|
A|---7----------------------------------------------------------------|
E|---7----------------------------------------------------------------|
(Hold for 8 beats (2 measures))

© Авторские права на тексты, песни, видео и другую представленную информацию принадлежат правообладателям. Аккорды, табы, gtp и тексты песен взяты из открытых источников.
Возрастная категория сайта: 18+
Тексты некоторых песен могут содержать нецензурные выражения, брань.
© 2020 guitar-chords.ru