Hi folks
this is my version of the song, I know its not quite
correct but if you`re half deaf it`ll work out ok,
just play it along with the cd.

Intro:        
E------------------------------------------------------
H------------------------------------------------------
G------------------------------------------------------
D------------------------------------------------------
A----7-7-7-7--5--5-5-5-5--3--3-3-3-2-3-2-0-------------
E------------------------------------------3-0---------

Verse:        
E-----------------------------------------------------------------------
H-----------------------------------------------------------------------
G----------7--7-7-7-7----------------------------5--7--9--5--7--9--5--7-
D---2-2----7--7-7-7-7---5-5-5-5---7-7-7-7-7------5--7--9--5--7--9--5--7-hold the last one
A---2-2----5--5-5-5-5---5-5-5-5---7-7-7-7-7------3--5--7--3--5--7--3--5-
E---0-0-----------------3-3-3-3---5-5-5-5-5-----------------------------
    If you could step...  Or would you simply let it lie...

Prechorus:    
E-----------------------------------------------------------------------
H-----------------------------------------------------------------------
G-------7--5--4--5--7---------------------------------------------------
D---2---7--5--4--5--7---X4----------------------------------------------
A---2---5--3--2--3--5---------------------------------------------------
E---0-------------------------------------------------------------------
    Oh no I can`t let you go...

Chorus:        
E-----------------------------------------------------------------------
H-----------------------------------------------------------------------
G-----------7-----------------------------------------------------------
D-------2---7---5---7-----repeat several times--------------------------
A-------2---5---5---7---------------------------------------------------   
E-------0-------3---5---------------------------------------------------
So I need you...

Solo:        
E-----------------------------------------------------------------------
H-----------------------------------------------------------------------
G-----------0----------0--------0---0-2-0-------------------------------
D-----0-2-4---4-2--2-4---4-2-2-4--4-------4-2-------X2------------------
A-----------------------------------------------------------------------
E-----------------------------------------------------------------------

during the solo play the pre-chorus chords

Lyrics:        
If you could step inside my head, tell
me would you still know me
if you woke up in my bed, tell me
then would you hold me
Or would you simply let it lie
leaving me to wonder why
i can`t get you out of this head
I call mine
And I will say

Oh no I can`t let you go
my little girl
Because you`re holding up my
world, so I need you
Your imitation of my walk and the
perfect way you talk
It`s just a couple of the million
things that I love about you

So I need you } X4

And if I jumped off the Brooklyn
Bridge, tell me would
still follow me
and if I made you mad today, tell
me would you love me
tomorrow? please
Or would you say that you don`t
care and then leave me
standing here
like the fool who is drowning in
despair and screaming

prechorus
chorus

I'm on my own } X3

prechorus
chorus

I think thats one of the best cd`s I ever bought!!


© Авторские права на тексты, песни, видео и другую представленную информацию принадлежат правообладателям. Аккорды, табы, gtp и тексты песен взяты из открытых источников.
Возрастная категория сайта: 18+
Тексты некоторых песен могут содержать нецензурные выражения, брань.
© 2020 guitar-chords.ru