Обратите внимание! В этом подборе есть аккорд с тоникой Си, который обозначается как H. У нас аккорд B и H равнозначны, В - это "си" и H - это "си".
Если в этом подборе оба этих обозначений, то скорее всего тут B - это Bb (A#). При игре Вы сразу поймете, какой нужно брать аккорд. Хорошей игры на гитаре!
Инструмент: Гитара (6-ти струнная) поменять
Строй: Standart (E A D G B E) поменять
Без каподастра поменять
"Blessed Be"
Brandon Lee

Normal Tuning
  C#   E    F#   A   H7 
|----|----|----|----|----|
|----|----|----|----|----|
|-6--|-9--|----|----|----|
|-6--|-9--|-4--|----|----|
|-4--|-7--|-4--|-7--|-6--|
|----|----|-2--|-5--|-7--|

Intro:        
e|-0-----------0----4------------0----------------------------------|
B|-5-5-5-4-4-4-5-5-5-5-5-5-4-4-4-5-5-5-4-4-4-5-5-5-7-7-7-5-5-5-4-4-4|
G|------------------------------------------------------------------|
D|------------------------------------------------------------------|
A|------------------------------------------------------------------|
E|------------------------------------------------------------------|
                                                   F# 
e|-0-----------0----4------------0----------------------------------|
B|-5-5-5-4-4-4-5-5-5-5-5-5-4-4-4-5-5-5-4-4-4-5-5-5-7-7-7-7-7-7-7-7--|
G|------------------------------------------------------------------|
D|------------------------------------------------------------------|
A|------------------------------------------------------------------|
E|------------------------------------------------------------------|
  C#                                  A             H 
e|---------------4----------------------------------2------------|
B|-5---4--2--0-------5---4--2-0--2----5---4--2--0------5--4-2-0-2|
G|---------------------------------------------------------------|
D|---------------------------------------------------------------|
A|---------------------------------------------------------------|
E|---------------------------------------------------------------|
C#              H               A                  F# 
e|---------------4----------------------------------2------------|
B|-5---4--2--0-------5---4--2-0--2----5---4--2--0------5--4-2-0-2|
G|---------------------------------------------------------------|
D|---------------------------------------------------------------|
A|---------------------------------------------------------------|
E|---------------------------------------------------------------|
C#                          E                H7 
What would there be, as the river of sadness turns into sea,
A|----7-7-6-4--------|
C#                          E                 F# 
Could there be, another thousand stories like you and me,
A|----7-7-6-4--------|
C#                       E              H7                        C# 
Wanted a heart, wanted a soul more than anything else in this world,
A|----7-7-6-4--------|
           H        A 
but we are doomed our flesh wounds,
F# 
I would never give in..

Chorus:        
  C#                                  A             H 
e|---------------4----------------------------------2------------|
B|-5---4--2--0-------5---4--2-0--2----5---4--2--0------5--4-2-0-2|
G|---------------------------------------------------------------|
D|---------------------------------------------------------------|
A|---------------------------------------------------------------|
E|---------------------------------------------------------------|
       Just like the moon does,       We rise'n'   shine'n'  fall,
C#             H              A                 F# 
e|--------------4--------------------------------2------------|
B|-5---4--2--0-----5---4--2-0--2----5---4--2--0-----5--4-2-0-2|
G|------------------------------------------------------------|
D|------------------------------------------------------------|
A|------------------------------------------------------------|
E|------------------------------------------------------------|
Over         you  that I, rise'n'shine'n'crawl victims aren't we all
C#                   E                  H7 
What would there be, beyond the eyes of Brandon Lee
A|----7-7-6-4--------|
C#                   E            F# 
Could there be, a revenging angel left to bleed,            

© Авторские права на тексты, песни, видео и другую представленную информацию принадлежат правообладателям. Аккорды, табы, gtp и тексты песен взяты из открытых источников.
Возрастная категория сайта: 18+
Тексты некоторых песен могут содержать нецензурные выражения, брань.
© 2019 guitar-chords.ru