Песня играется перебором:
-3-2-1--3-2-3.

ВСТУПЛЕНИЕ:    
   Hm                 A                  Em 
1|--------0---------|--------0---------|--------0---------|
2|------3-------3---|------2-------2---|------0-------0---|
3|----4-------4---4-|----2-------2---2-|----0-------0---0-|
4|------------------|------------------|------------------|
5|--2---------------|--0---------------|------------------|
6|------------------|------------------|--0---------------|

   Hm                 A                   Em 
1|--------0---------|--------0---------|--------0---------|
2|------3-------3---|------2-------2---|------0-------0---|
3|----4-------4---4-|----2-------2---2-|----0-------0---0-|
4|------------------|------------------|------------------|
5|--2---------------|--0---------------|------------------|
6|------------------|------------------|--0---------------|

   Hm 
1|--------0---------|
2|------3-------3---|
3|----4-------4---4-|
4|------------------|
5|--2---------------|
6|------------------|

КУПЛЕТ 1:       D                 A                  Hm 
1|--------2---------|--------0---------|--------0---------|
2|------3-------3---|------2-------2---|------4-------4---|
3|----2-------2---2-|----2-------2---2-|----3-------3---3-|
4|--0---------------|------------------|------------------|
5|------------------|--0---------------|--2---------------|
6|------------------|------------------|------------------|
   Есть  город  на   Неве, я там еще  не разу не был.

    Hm 
1|--------0---------|
2|------4-------4---|
3|----3-------3---3-|
4|------------------|
5|--2---------------|
6|------------------|

  A                  Em                 Hm 
1|---------0--------|--------0---------|--------0---------|
2|-------2------2---|------0-------0---|------4-------4---|
3|-----2------2---2-|----0-------0---0-|----3-------3---3-|
4|------------------|------------------|------------------|
5|--0---------------|------------------|--2---------------|
6|------------------|--0---------------|------------------|
   Есть  город  на  Неве, я  там бываю во сне.

    Hm 
1|--------0---------|
2|------4-------4---|
3|----3-------3---3-|
4|------------------|
5|--2---------------|
6|------------------|

    G                 G                  D 
1|--------3---------|--------3---------|--------2---------|
2|------0-------0---|------0-------0---|------3-------3---|
3|----0-------0---0-|----0-------0---0-|----2-------2---2-|
4|------------------|------------------|--0---------------|
5|------------------|------------------|------------------|
6|--3---------------|--3---------------|------------------|
    Санкт-Петербург,  Петроград,   Ленингра-a-a-a-a-д

   D 
1|--------2---------|
2|------3-------3---|
3|----2-------2---2-|
4|--0---------------|
5|------------------|
6|------------------|

   Em                 A                  Hm 
1|--------0---------|--------0---------|-------0----------|
2|------0-------0---|------2-------2---|-----4-------4----|
3|----0-------0---0-|----2-------2---2-|---3-------3---3--|
4|------------------|------------------|------------------|
5|------------------|--0---------------|--2---------------|
6|--0---------------|------------------|------------------|
      Разводные    мосты, живые каменные  львы.

    Hm 
1|--------0---------|
2|------4-------4---|
3|----3-------3---3-|
4|------------------|
5|--2---------------|
6|------------------|

    G                  G                  D 
1|--------3---------|--------3---------|--------2---------|
2|------0-------0---|------0-------0---|------3-------3---|
3|----0-------0---0-|----0-------0---0-|----2-------2---2-|
4|------------------|------------------|--0---------------|
5|------------------|------------------|------------------|
6|--3---------------|--3---------------|------------------|
    Зимним  светом полярной   звезды,   отражение  кладов

   D 
1|--------2---------|
2|------3-------3---|
3|----2-------2---2-|
4|--0---------------|
5|------------------|
6|------------------|
    co дна Невы

    Em                 A                  G 
1|--------0---------|--------0---------|--------3---------|
2|------0-------0---|------2-------2---|------0-------0---|
3|----0-------0---0-|----2-------2---2-|----0-------0---0-|
4|------------------|------------------|------------------|
5|------------------|--0---------------|------------------|
6|--0---------------|------------------|--3---------------|
    Звездный парад,    мелодии  белых   ночей.

   G 
1|--------3---------|
2|------0-------0---|
3|----0-------0---0-|
4|------------------|
5|------------------|
6|--3---------------|

Припев после куплета нужно играть боем, плавно переходя, c перебора.

D           A 
ПРИПЕВ:        
Сказка во сне- \
Em         Hm   } 2раза 
Город на Неве. /

D                A                      Hm 
КУПЛЕТ 2:    Есть город на Неве, ему от роду триста лет.
A                Em                       Hm 
Есть город на Неве, такого нет на всей земле.
G                                  D 
Санкт-Петербург, Петроград, Ленинград
Em           A                    Hm 
Город герой, во славу царей и вождей.
G 
Зимним светом полярной звезды
D 
Отражение кладов co дна Невы
Em                 A             G 
Звездный парад, мелодии белых ночей.

D           A 
ПРИПЕВ:        
Сказка во сне- \
Em         Hm   } 2 раза 
Город на Неве. /

КОНЦОВКА.
Перебор концовки -3-2-3-1-3-2-3.
Аккорды как в начале.
Есть город на Неве, я там еще не разу не был.
Есть город на Неве, я там бываю во сне.
...я там бываю во сне.
...бываю во сне.
...я там бываю во сне.
...во сне.
...там бываю во сне.

Все!!!

© Авторские права на тексты, песни, видео и другую представленную информацию принадлежат правообладателям. Аккорды, табы, gtp и тексты песен взяты из открытых источников.
Возрастная категория сайта: 18+
Тексты некоторых песен могут содержать нецензурные выражения, брань.
© 2020 guitar-chords.ru