12-String Guitar

E||------|------|------|------|------|------|------|------|------|------|
B||------|------|------|------|------|------|------|------|------|------|
G||------|------|------|------|------|------|------|------|------|------|
D||------|------|------|------|------|------|------|------|------|------|
A||------|------|------|------|------|------|------|------|------|------|
E||------|------|------|------|------|------|------|------|------|------|

              Em                         G                          Bm 
--------------0----|--0---0-x-0-x-0-0----3----|--3---3-x-3-x-3-3----2----|
--------------0----|--0---0-x-0-x-0-0----0----|--0---0-x-0-x-0-0----3----|
--------------0----|--0---0-x-0-x-0-0----0----|--0---0-x-0-x-0-0----4----|
--------------2----|--2-------------2----0----|--0-------------0----4----|
--------------2----|--2-------------2----2----|--2-------------2----2----|
--------------0----|--0-------------0----3----|--------------------------|

                                                Em 
--2---2-x-2-x-2-2----2----|--2---2-x-2-x-2-2----0----|
--3---2-x-2-x-2-2----3----|--3---2-x-2-x-2-2----0----|
--4---4-x-4-x-4-4----4----|--4---4-x-4-x-4-4----0----|
--4-------------4----4----|--4-------------4----2----|
--2-------------2----2----|--2-------------2----2----|
--------------------------|---------------------0----|

                     G                          Bm 
--0---0-x-0-x-0-0----3----|--3---3-x-3-x-3-3----2----|
--0---0-x-0-x-0-0----0----|--0---0-x-0-x-0-0----3----|
--0---0-x-0-x-0-0----0----|--0---0-x-0-x-0-0----4----|
--2-------------2----0----|--0-------------0----4----|
--2-------------2----2----|--2-------------2----2----|
--0-------------0----3----|--------------------------|

                                                Bm 
--2---2-x-2-x-2-2----2----|--2---2-x-2-x-2-2----2----|
--3---2-x-2-x-2-2----3----|--3---2-x-2-x-2-2----3----|
--4---4-x-4-x-4-4----4----|--4---4-x-4-x-4-4----4----|
--4-------------4----4----|--4-------------4----4----|
--2-------------2----2----|--2-------------2----2----|
--------------------------|--------------------------|

                                                Em 
--2---2-x-2-x-2-2----2----|--2---2-x-2-x-2-2----0----|
--3---3-x-3-x-3-3----3----|--3---3-x-3-x-3-3----0----|
--4---4-x-4-x-4-4----4----|--4---4-x-4-x-4-4----0----|
--4-------------4----4----|--4-------------4----2----|
--2-------------2----2----|--2-------------2----2----|
--------------------------|---------------------0----|

                     Em                         Bm 
--0---0-x-0-x-0-0----0----|--0---0-x-0-x-0-0----2----|
--0---0-x-0-x-0-0----0----|--0---0-x-0-x-0-0----3----|
--0---0-x-0-x-0-0----0----|--0---0-x-0-x-0-0----4----|
--2-------------2----2----|--2-------------2----4----|
--2-------------2----2----|--2-------------2----2----|
--0-------------0----0----|--0-------------0---------|

                                                  Em 
--2---2-x-2-x-2-2--2--2----|--2---2-x-2-x-2-2--2--0----|
--3---3-x-3-x-3-3--3--3----|--3---3-x-3-x-3-3--3--0----|
--4---4-x-4-x-4-4--4--4----|--4---4-x-4-x-4-4--4--0----|
--4-------------4--4--4----|--4-------------4--4--2----|
--2-------------2--2--2----|--2-------------2--2--2----|
---------------------------|----------------------0----|

                      Em                          Bm 
--0---0-x-0-x-0-0--0--0----|--0---0-x-0-x-0-0--0--2----|
--0---0-x-0-x-0-0--0--0----|--0---0-x-0-x-0-0--0--3----|
--0---0-x-0-x-0-0--0--0----|--0---0-x-0-x-0-0--0--4----|
--2-------------2--2--2----|--2-------------2--2--4----|
--2-------------2--2--2----|--2-------------2--2--2----|
--0-------------0--0--0----|--0-------------0--0-------|

                                                  Em 
--2---2-x-2-x-2-2--2--2----|--2---2-x-2-x-2-2--2--0----|
--3---3-x-3-x-3-3--3--3----|--3---3-x-3-x-3-3--3--0----|
--4---4-x-4-x-4-4--4--4----|--4---4-x-4-x-4-4--4--0----|
--4-------------4--4--4----|--4-------------4--4--2----|
--2-------------2--2--2----|--2-------------2--2--2----|
---------------------------|----------------------0----|

                      Em                          Bm 
--0---0-x-0-x-0-0--0--0----|--0---0-x-0-x-0-0--0--2----|
--0---0-x-0-x-0-0--0--0----|--0---0-x-0-x-0-0--0--3----|
--0---0-x-0-x-0-0--0--0----|--0---0-x-0-x-0-0--0--4----|
--2-------------2--2--2----|--2-------------2--2--4----|
--2-------------2--2--2----|--2-------------2--2--2----|
--0-------------0--0--0----|--0-------------0--0-------|

                                                  Em 
--2---2-x-2-x-2-2--2--2----|--2---2-x-2-x-2-2--2--0----|
--3---3-x-3-x-3-3--3--3----|--3---3-x-3-x-3-3--3--0----|
--4---4-x-4-x-4-4--4--4----|--4---4-x-4-x-4-4--4--0----|
--4-------------4--4--4----|--4-------------4--4--2----|
--2-------------2--2--2----|--2-------------2--2--2----|
---------------------------|----------------------0----|

                      Em                          Bm 
--0---0-x-0-x-0-0--0--0----|--0---0-x-0-x-0-0--0--2----|
--0---0-x-0-x-0-0--0--0----|--0---0-x-0-x-0-0--0--3----|
--0---0-x-0-x-0-0--0--0----|--0---0-x-0-x-0-0--0--4----|
--2-------------2--2--2----|--2-------------2--2--4----|
--2-------------2--2--2----|--2-------------2--2--2----|
--0-------------0--0--0----|--0-------------0--0-------|

                                                  Em 
--2---2-x-2-x-2-2--2--2----|--2---2-x-2-x-2-2--2--0----|
--3---3-x-3-x-3-3--3--3----|--3---3-x-3-x-3-3--3--0----|
--4---4-x-4-x-4-4--4--4----|--4---4-x-4-x-4-4--4--0----|
--4-------------4--4--4----|--4-------------4--4--2----|
--2-------------2--2--2----|--2-------------2--2--2----|
---------------------------|----------------------0----|

                      G                           Bm 
--0---0-x-0-x-0-0--0--3----|--3---3-x-3-x-3-3--3--2----|
--0---0-x-0-x-0-0--0--0----|--0---0-x-0-x-0-0--0--3----|
--0---0-x-0-x-0-0--0--0----|--0---0-x-0-x-0-0--0--4----|
--2-------------2--2--0----|--0-------------0--0--4----|
--2-------------2--2--2----|--2-------------2--2--2----|
--0-------------0--0--3----|---------------------------|

                                                  Em 
--2---2-x-2-x-2-2--2--2----|--2---2-x-2-x-2-2--2--0----|
--3---3-x-3-x-3-3--3--3----|--3---3-x-3-x-3-3--3--0----|
--4---4-x-4-x-4-4--4--4----|--4---4-x-4-x-4-4--4--0----|
--4-------------4--4--4----|--4-------------4--4--2----|
--2-------------2--2--2----|--2-------------2--2--2----|
---------------------------|----------------------0----|

                      G                           Bm 
--0---0-x-0-x-0-0--0--3----|--3---3-x-3-x-3-3--3--2----|
--0---0-x-0-x-0-0--0--0----|--0---0-x-0-x-0-0--0--3----|
--0---0-x-0-x-0-0--0--0----|--0---0-x-0-x-0-0--0--4----|
--2-------------2--2--0----|--0-------------0--0--4----|
--2-------------2--2--2----|--2-------------2--2--2----|
--0-------------0--0--3----|---------------------------|

                                                  Em 
--2---2-x-2-x-2-2--2--2----|--2---2-x-2-x-2-2--2--0----|
--3---3-x-3-x-3-3--3--3----|--3---3-x-3-x-3-3--3--0----|
--4---4-x-4-x-4-4--4--4----|--4---4-x-4-x-4-4--4--0----|
--4-------------4--4--4----|--4-------------4--4--2----|
--2-------------2--2--2----|--2-------------2--2--2----|
---------------------------|----------------------0----|

                      G                           Bm 
--0---0-x-0-x-0-0--0--3----|--3---3-x-3-x-3-3--3--2----|
--0---0-x-0-x-0-0--0--0----|--0---0-x-0-x-0-0--0--3----|
--0---0-x-0-x-0-0--0--0----|--0---0-x-0-x-0-0--0--4----|
--2-------------2--2--0----|--0-------------0--0--4----|
--2-------------2--2--2----|--2-------------2--2--2----|
--0-------------0--0--3----|---------------------------|

                                                  Em 
--2---2-x-2-x-2-2--2--2----|--2---2-x-2-x-2-2--2--0----|
--3---3-x-3-x-3-3--3--3----|--3---3-x-3-x-3-3--3--0----|
--4---4-x-4-x-4-4--4--4----|--4---4-x-4-x-4-4--4--0----|
--4-------------4--4--4----|--4-------------4--4--2----|
--2-------------2--2--2----|--2-------------2--2--2----|
---------------------------|----------------------0----|

                      G                           Bm 
--0---0-x-0-x-0-0--0--3----|--3---3-x-3-x-3-3--3--2----|
--0---0-x-0-x-0-0--0--0----|--0---0-x-0-x-0-0--0--3----|
--0---0-x-0-x-0-0--0--0----|--0---0-x-0-x-0-0--0--4----|
--2-------------2--2--0----|--0-------------0--0--4----|
--2-------------2--2--2----|--2-------------2--2--2----|
--0-------------0--0--3----|---------------------------|

                                                  Bm 
--2---2-x-2-x-2-2--2--2----|--3---3-x-3-x-3-3--3--2----|
--3---3-x-3-x-3-3--3--3----|--0---0-x-0-x-0-0--0--3----|
--4---4-x-4-x-4-4--4--4----|--0---0-x-0-x-0-0--0--4----|
--4-------------4--4--4----|--0-------------0--0--4----|
--2-------------2--2--2----|--2-------------2--2--2----|
---------------------------|---------------------------|

                                                  Em 
--2---2-x-2-x-2-2--2--2----|--2---2-x-2-x-2-2--2--0----|
--3---3-x-3-x-3-3--3--3----|--3---3-x-3-x-3-3--3--0----|
--4---4-x-4-x-4-4--4--4----|--4---4-x-4-x-4-4--4--0----|
--4-------------4--4--4----|--4-------------4--4--2----|
--2-------------2--2--2----|--2-------------2--2--2----|
---------------------------|----------------------0----|

--0---0-x-0-x-0-0--0--0----|--0---0-x-0-x-0-0--0--0----|
--0---0-x-0-x-0-0--0--0----|--0---0-x-0-x-0-0--0--0----|
--0---0-x-0-x-0-0--0--0----|--0---0-x-0-x-0-0--0--0----|
--2-------------2--2--2----|--2-------------2--2--2----|
--2-------------2--2--2----|--2-------------2--2--2----|
--0-------------0--0-------|--0-------------0--0-------|

                      Em                          Bm 
--0---0-x-0-x-0-0--0--0----|--0---0-x-0-x-0-0--0--2----|
--0---0-x-0-x-0-0--0--0----|--0---0-x-0-x-0-0--0--3----|
--0---0-x-0-x-0-0--0--0----|--0---0-x-0-x-0-0--0--4----|
--2-------------2--2--2----|--2-------------2--2--4----|
--2-------------2--2--2----|--2-------------2--2--2----|
--0-------------0--0-------|--0-------------0--0-------|

                                                  Em 
--2---2-x-2-x-2-2--2--2----|--2---2-x-2-x-2-2--2--0----|
--3---3-x-3-x-3-3--3--3----|--3---3-x-3-x-3-3--3--0----|
--4---4-x-4-x-4-4--4--4----|--4---4-x-4-x-4-4--4--0----|
--4-------------4--4--4----|--4-------------4--4--2----|
--2-------------2--2--2----|--2-------------2--2--2----|
---------------------------|----------------------0----|

                      Em                          Bm 
--0---0-x-0-x-0-0--0--0----|--0---0-x-0-x-0-0--0--2----|
--0---0-x-0-x-0-0--0--0----|--0---0-x-0-x-0-0--0--3----|
--0---0-x-0-x-0-0--0--0----|--0---0-x-0-x-0-0--0--4----|
--2-------------2--2--2----|--2-------------2--2--4----|
--2-------------2--2--2----|--2-------------2--2--2----|
--0-------------0--0-------|--0-------------0--0-------|

                                                  Em 
--2---2-x-2-x-2-2--2--2----|--2---2-x-2-x-2-2--2--0----|
--3---3-x-3-x-3-3--3--3----|--3---3-x-3-x-3-3--3--0----|
--4---4-x-4-x-4-4--4--4----|--4---4-x-4-x-4-4--4--0----|
--4-------------4--4--4----|--4-------------4--4--2----|
--2-------------2--2--2----|--2-------------2--2--2----|
---------------------------|----------------------0----|

                      Em                          Bm 
--0---0-x-0-x-0-0--0--0----|--0---0-x-0-x-0-0--0--2----|
--0---0-x-0-x-0-0--0--0----|--0---0-x-0-x-0-0--0--3----|
--0---0-x-0-x-0-0--0--0----|--0---0-x-0-x-0-0--0--4----|
--2-------------2--2--2----|--2-------------2--2--4----|
--2-------------2--2--2----|--2-------------2--2--2----|
--0-------------0--0-------|--0-------------0--0-------|

                                                  Em 
--2---2-x-2-x-2-2--2--2----|--2---2-x-2-x-2-2--2--0----|
--3---3-x-3-x-3-3--3--3----|--3---3-x-3-x-3-3--3--0----|
--4---4-x-4-x-4-4--4--4----|--4---4-x-4-x-4-4--4--0----|
--4-------------4--4--4----|--4-------------4--4--2----|
--2-------------2--2--2----|--2-------------2--2--2----|
---------------------------|----------------------0----|

                      G                           Bm 
--0---0-x-0-x-0-0--0--3----|--3---3-x-3-x-3-3--3--2----|
--0---0-x-0-x-0-0--0--0----|--0---0-x-0-x-0-0--0--3----|
--0---0-x-0-x-0-0--0--0----|--0---0-x-0-x-0-0--0--4----|
--2-------------2--2--0----|--0-------------0--0--4----|
--2-------------2--2--2----|--2-------------2--2--2----|
--0-------------0--0--3----|---------------------------|

                                                  Em 
--2---2-x-2-x-2-2--2--2----|--2---2-x-2-x-2-2--2--0----|
--3---3-x-3-x-3-3--3--3----|--3---3-x-3-x-3-3--3--0----|
--4---4-x-4-x-4-4--4--4----|--4---4-x-4-x-4-4--4--0----|
--4-------------4--4--4----|--4-------------4--4--2----|
--2-------------2--2--2----|--2-------------2--2--2----|
---------------------------|----------------------0----|

                      G                           Bm 
--0---0-x-0-x-0-0--0--3----|--3---3-x-3-x-3-3--3--2----|
--0---0-x-0-x-0-0--0--0----|--0---0-x-0-x-0-0--0--3----|
--0---0-x-0-x-0-0--0--0----|--0---0-x-0-x-0-0--0--4----|
--2-------------2--2--0----|--0-------------0--0--4----|
--2-------------2--2--2----|--2-------------2--2--2----|
--0-------------0--0--3----|---------------------------|

                                                  Em 
--2---2-x-2-x-2-2--2--2----|--2---2-x-2-x-2-2--2--0----|
--3---3-x-3-x-3-3--3--3----|--3---3-x-3-x-3-3--3--0----|
--4---4-x-4-x-4-4--4--4----|--4---4-x-4-x-4-4--4--0----|
--4-------------4--4--4----|--4-------------4--4--2----|
--2-------------2--2--2----|--2-------------2--2--2----|
---------------------------|----------------------0----|

                      G                           Bm 
--0---0-x-0-x-0-0--0--3----|--3---3-x-3-x-3-3--3--2----|
--0---0-x-0-x-0-0--0--0----|--0---0-x-0-x-0-0--0--3----|
--0---0-x-0-x-0-0--0--0----|--0---0-x-0-x-0-0--0--4----|
--2-------------2--2--0----|--0-------------0--0--4----|
--2-------------2--2--2----|--2-------------2--2--2----|
--0-------------0--0--3----|---------------------------|

                                                  Em 
--2---2-x-2-x-2-2--2--2----|--2---2-x-2-x-2-2--2--0----|
--3---3-x-3-x-3-3--3--3----|--3---3-x-3-x-3-3--3--0----|
--4---4-x-4-x-4-4--4--4----|--4---4-x-4-x-4-4--4--0----|
--4-------------4--4--4----|--4-------------4--4--2----|
--2-------------2--2--2----|--2-------------2--2--2----|
---------------------------|----------------------0----|

                      G                           Bm 
--0---0-x-0-x-0-0--0--3----|--3---3-x-3-x-3-3--3--2----|
--0---0-x-0-x-0-0--0--0----|--0---0-x-0-x-0-0--0--3----|
--0---0-x-0-x-0-0--0--0----|--0---0-x-0-x-0-0--0--4----|
--2-------------2--2--0----|--0-------------0--0--4----|
--2-------------2--2--2----|--2-------------2--2--2----|
--0-------------0--0--3----|---------------------------|

                                                  Em 
--2---2-x-2-x-2-2--2--2----|--2---2-x-2-x-2-2--2--0----|
--3---3-x-3-x-3-3--3--3----|--3---3-x-3-x-3-3--3--0----|
--4---4-x-4-x-4-4--4--4----|--4---4-x-4-x-4-4--4--0----|
--4-------------4--4--4----|--4-------------4--4--2----|
--2-------------2--2--2----|--2-------------2--2--2----|
---------------------------|----------------------0----|

                      G                           Bm 
--0---0-x-0-x-0-0--0--3----|--3---3-x-3-x-3-3--3--2----|
--0---0-x-0-x-0-0--0--0----|--0---0-x-0-x-0-0--0--3----|
--0---0-x-0-x-0-0--0--0----|--0---0-x-0-x-0-0--0--4----|
--2-------------2--2--0----|--0-------------0--0--4----|
--2-------------2--2--2----|--2-------------2--2--2----|
--0-------------0--0--3----|---------------------------|

                                                  Em 
--2---2-x-2-x-2-2--2--2----|--2---2-x-2-x-2-2--2--0----|
--3---3-x-3-x-3-3--3--3----|--3---3-x-3-x-3-3--3--0----|
--4---4-x-4-x-4-4--4--4----|--4---4-x-4-x-4-4--4--0----|
--4-------------4--4--4----|--4-------------4--4--2----|
--2-------------2--2--2----|--2-------------2--2--2----|
---------------------------|----------------------0----|

                      G                           Bm 
--0---0-x-0-x-0-0--0--3----|--3---3-x-3-x-3-3--3--2----|
--0---0-x-0-x-0-0--0--0----|--0---0-x-0-x-0-0--0--3----|
--0---0-x-0-x-0-0--0--0----|--0---0-x-0-x-0-0--0--4----|
--2-------------2--2--0----|--0-------------0--0--4----|
--2-------------2--2--2----|--2-------------2--2--2----|
--0-------------0--0--3----|---------------------------|

                                                  Em 
--2---2-x-2-x-2-2--2--2----|--2---2-x-2-x-2-2--2--0----|
--3---3-x-3-x-3-3--3--3----|--3---3-x-3-x-3-3--3--0----|
--4---4-x-4-x-4-4--4--4----|--4---4-x-4-x-4-4--4--0----|
--4-------------4--4--4----|--4-------------4--4--2----|
--2-------------2--2--2----|--2-------------2--2--2----|
---------------------------|----------------------0----|

                      G                           Bm 
--0---0-x-0-x-0-0--0--3----|--3---3-x-3-x-3-3--3--2----|
--0---0-x-0-x-0-0--0--0----|--0---0-x-0-x-0-0--0--3----|
--0---0-x-0-x-0-0--0--0----|--0---0-x-0-x-0-0--0--4----|
--2-------------2--2--0----|--0-------------0--0--4----|
--2-------------2--2--2----|--2-------------2--2--2----|
--0-------------0--0--3----|---------------------------|

                                                  Em 
--2---2-x-2-x-2-2--2--2----|--2---2-x-2-x-2-2--2--0----|
--3---3-x-3-x-3-3--3--3----|--3---3-x-3-x-3-3--3--0----|
--4---4-x-4-x-4-4--4--4----|--4---4-x-4-x-4-4--4--0----|
--4-------------4--4--4----|--4-------------4--4--2----|
--2-------------2--2--2----|--2-------------2--2--2----|
---------------------------|----------------------0----|

                      G                           Bm 
--0---0-x-0-x-0-0--0--3----|--3---3-x-3-x-3-3--3--2----|
--0---0-x-0-x-0-0--0--0----|--0---0-x-0-x-0-0--0--3----|
--0---0-x-0-x-0-0--0--0----|--0---0-x-0-x-0-0--0--4----|
--2-------------2--2--0----|--0-------------0--0--4----|
--2-------------2--2--2----|--2-------------2--2--2----|
--0-------------0--0--3----|---------------------------|

                                                  Em 
--2---2-x-2-x-2-2--2--2----|--2---2-x-2-x-2-2--2--0----|
--3---3-x-3-x-3-3--3--3----|--3---3-x-3-x-3-3--3--0----|
--4---4-x-4-x-4-4--4--4----|--4---4-x-4-x-4-4--4--0----|
--4-------------4--4--4----|--4-------------4--4--2----|
--2-------------2--2--2----|--2-------------2--2--2----|
---------------------------|----------------------0----|

                      G                           Bm 
--0---0-x-0-x-0-0--0--3----|--3---3-x-3-x-3-3--3--2----|
--0---0-x-0-x-0-0--0--0----|--0---0-x-0-x-0-0--0--3----|
--0---0-x-0-x-0-0--0--0----|--0---0-x-0-x-0-0--0--4----|
--2-------------2--2--0----|--0-------------0--0--4----|
--2-------------2--2--2----|--2-------------2--2--2----|
--0-------------0--0--3----|---------------------------|

                                                  Em 
--2---2-x-2-x-2-2--2--2----|--2---2-x-2-x-2-2--2--0----|
--3---3-x-3-x-3-3--3--3----|--3---3-x-3-x-3-3--3--0----|
--4---4-x-4-x-4-4--4--4----|--4---4-x-4-x-4-4--4--0----|
--4-------------4--4--4----|--4-------------4--4--2----|
--2-------------2--2--2----|--2-------------2--2--2----|
---------------------------|----------------------0----|

                      G 
--0---0-x-0-x-0-0--0--3----|------|------------------|------|------|------|
--0---0-x-0-x-0-0--0--0----|------|------------------|------|------|------|
--0---0-x-0-x-0-0--0--0----|------|------------------|------|------|------|
--2-------------2--2--0----|------|------------------|------|------|------|
--2-------------2--2--2----|------|------------------|------|------|------|
--0-------------0--0--3----|------|------------------|------|------|------|

------|------||
------|------||
------|------||
------|------||
------|------||
------|------||

© Авторские права на тексты, песни, видео и другую представленную информацию принадлежат правообладателям. Аккорды, табы, gtp и тексты песен взяты из открытых источников.
Возрастная категория сайта: 18+
Тексты некоторых песен могут содержать нецензурные выражения, брань.
© 2020 guitar-chords.ru