Guitar

            C                         C 
E||------|--3----3---3--3-x-3-3----|--3----3---3--3-x-3-3----|
B||------|--5----5---5--5-x-5-5----|--5----5---5--5-x-5-5----|
G||------|--5----5---5--5-x-5-5----|--5----5---5--5-x-5-5----|
D||------|--5----------------------|--5----------------------|
A||------|--3----------------------|--3----------------------|
E||------|-------------------------|-------------------------|

  Em                        Em                        Am 
--7----7---7--7-x-7-7----|--7----7---7--7-x-7-7----|--5----5---5--5-x-5-5----|
--8----8---8--8-x-8-8----|--8----8---8--8-x-8-8----|--5----5---5--5-x-5-5----|
--9----9---9--9-x-9-9----|--9----9---9--9-x-9-9----|--5----5---5--5-x-5-5----|
--9----9---9--9---9-9----|--9----9---9--9---9-9----|--7----7---7--7---7-7----|
--7-----------------7----|--7-----------------7----|--7----7---7--7---7-7----|
--0-----------------0----|--0-----------------0----|--5----------------------|

  D                         Em                        Em 
--5----5---5--5-x-5-5----|--7----x---7--7-x-7-7----|--7----x---7--7-x-7-7----|
--7----7---7--7-x-7-7----|--8----x---8--8-x-8-8----|--8----x---8--8-x-8-8----|
--7----7---7--7-x-7-7----|--9----x---9--9-x-9-9----|--9----x---9--9-x-9-9----|
--7----7---7--7---7-7----|--9----x---9--9---9-9----|--9----x---9--9---9-9----|
--5----------------------|--7-----------------7----|--7-----------------7----|
-------------------------|--0-----------------0----|--0-----------------0----|

  C                         C                         Em 
--3----3---3--3-x-3-3----|--3----3---3--3-x-3-3----|--7----7---7--7-x-7-7----|
--5----5---5--5-x-5-5----|--5----5---5--5-x-5-5----|--8----8---8--8-x-8-8----|
--5----5---5--5-x-5-5----|--5----5---5--5-x-5-5----|--9----9---9--9-x-9-9----|
--5----------------------|--5----------------------|--9----9---9--9---9-9----|
--3----------------------|--3----------------------|--7-----------------7----|
-------------------------|-------------------------|--0-----------------0----|

  Em                        Am                        D 
--7----7---7--7-x-7-7----|--5----5---5--5-x-5-5----|--5----5---5--5-x-5-5----|
--8----8---8--8-x-8-8----|--5----5---5--5-x-5-5----|--7----7---7--7-x-7-7----|
--9----9---9--9-x-9-9----|--5----5---5--5-x-5-5----|--7----7---7--7-x-7-7----|
--9----9---9--9---9-9----|--7----7---7--7---7-7----|--7----7---7--7---7-7----|
--7-----------------7----|--7----7---7--7---7-7----|--5----------------------|
--0-----------------0----|--5----------------------|-------------------------|

  Em                        Em                        Em 
--7----7---7--7-x-7-7----|--7----7---7--7-x-7-7----|--7----7---7--7-x-7-7----|
--8----8---8--8-x-8-8----|--8----8---8--8-x-8-8----|--8----8---8--8-x-8-8----|
--9----9---9--9-x-9-9----|--9----9---9--9-x-9-9----|--9----9---9--9-x-9-9----|
--9----9---9--9---9-9----|--9----9---9--9---9-9----|--9----9---9--9---9-9----|
--7-----------------7----|--7-----------------7----|--7-----------------7----|
--0-----------------0----|--0-----------------0----|--0-----------------0----|

  Em                        C                         Em 
--7----7---7--7-x-7-7----|--3----3---3--3-x-3-3----|--7----7---7--7-x-7-7----|
--8----8---8--8-x-8-8----|--5----5---5--5-x-5-5----|--8----8---8--8-x-8-8----|
--9----9---9--9-x-9-9----|--5----5---5--5-x-5-5----|--9----9---9--9-x-9-9----|
--9----9---9--9---9-9----|--5----------------------|--9----9---9--9---9-9----|
--7-----------------7----|--3----------------------|--7-----------------7----|
--0-----------------0----|-------------------------|--0-----------------0----|

  Em                        Em                        C 
--7----7---7--7-x-7-7----|--7----7---7--7-x-7-7----|--3----3---3--3-x-3-3----|
--8----8---8--8-x-8-8----|--8----8---8--8-x-8-8----|--5----5---5--5-x-5-5----|
--9----9---9--9-x-9-9----|--9----9---9--9-x-9-9----|--5----5---5--5-x-5-5----|
--9----9---9--9---9-9----|--9----9---9--9---9-9----|--5----------------------|
--7-----------------7----|--7-----------------7----|--3----------------------|
--0-----------------0----|--0-----------------0----|-------------------------|

  Em                        C                         C 
--7----7---7--7-x-7-7----|--3----3---3--3-x-3-3----|--3----3---3--3-x-3-3----|
--8----8---8--8-x-8-8----|--5----5---5--5-x-5-5----|--5----5---5--5-x-5-5----|
--9----9---9--9-x-9-9----|--5----5---5--5-x-5-5----|--5----5---5--5-x-5-5----|
--9----9---9--9---9-9----|--5----------------------|--5----------------------|
--7-----------------7----|--3----------------------|--3----------------------|
--0-----------------0----|-------------------------|-------------------------|

  G                         G                         Am 
--3----3---3--3-3-3-3----|--3----3---3--3-3-3-3----|--5----5---5--5-x-5-5----|
--3----3---3--3-3-3-3----|--3----3---3--3-3-3-3----|--5----5---5--5-x-5-5----|
--4----4---4--4-4-4-4----|--4----4---4--4-4-4-4----|--5----5---5--5-x-5-5----|
--5----------------------|--5----------------------|--7----7---7--7---7-7----|
--5----------------------|--5----------------------|--7----7---7--7---7-7----|
--3----------------------|--3----------------------|--5----------------------|

  Am                        Em                        Em 
--5----5---5--5-x-5-5----|--7----7---7--7-x-7-7----|--7----7---7--7-x-7-7----|
--5----5---5--5-x-5-5----|--8----8---8--8-x-8-8----|--8----8---8--8-x-8-8----|
--5----5---5--5-x-5-5----|--9----9---9--9-x-9-9----|--9----9---9--9-x-9-9----|
--7----7---7--7---7-7----|--9----9---9--9---9-9----|--9----9---9--9---9-9----|
--7----7---7--7---7-7----|--7-----------------7----|--7-----------------7----|
--5----------------------|--0-----------------0----|--0-----------------0----|

  C                         C                         G 
--3----3---3--3-x-3-3----|--3----3---3--3-x-3-3----|--3----3---3--3-3-3-3----|
--5----5---5--5-x-5-5----|--5----5---5--5-x-5-5----|--3----3---3--3-x-3-3----|
--5----5---5--5-x-5-5----|--5----5---5--5-x-5-5----|--4----4---4--4-x-4-4----|
--5----------------------|--5----------------------|--5----------------------|
--3----------------------|--3----------------------|--5----------------------|
-------------------------|-------------------------|--3----------------------|

  G                         Am                        Am 
--3----3---3--3-x-3-3----|--5----5---5--5-x-5-5----|--5----5---5--5-x-5-5----|
--3----3---3--3-x-3-3----|--5----5---5--5-x-5-5----|--5----5---5--5-x-5-5----|
--4----4---4--4-x-4-4----|--5----5---5--5-x-5-5----|--5----5---5--5-x-5-5----|
--5----------------------|--7----7---7--7---7-7----|--7----7---7--7---7-7----|
--5----------------------|--7----7---7--7---7-7----|--7----7---7--7---7-7----|
--3----------------------|--5----------------------|--5----------------------|

  Em                        Em                        C 
--7----7---7--7-x-7-7----|--7----7---7--7-x-7-7----|--3----3---3--3-x-3-3----|
--8----8---8--8-x-8-8----|--8----8---8--8-x-8-8----|--5----5---5--5-x-5-5----|
--9----9---9--9-x-9-9----|--9----9---9--9-x-9-9----|--5----5---5--5-x-5-5----|
--9----9---9--9---9-9----|--9----9---9--9---9-9----|--5----------------------|
--7-----------------7----|--7-----------------7----|--3----------------------|
--0-----------------0----|--0-----------------0----|-------------------------|

  C                         Em                        Em 
--3----3---3--3-x-3-3----|--7----7---7--7-x-7-7----|--7----7---7--7-x-7-7----|
--5----5---5--5-x-5-5----|--8----8---8--8-x-8-8----|--8----8---8--8-x-8-8----|
--5----5---5--5-x-5-5----|--9----9---9--9-x-9-9----|--9----9---9--9-x-9-9----|
--5----------------------|--9----9---9--9---9-9----|--9----9---9--9---9-9----|
--3----------------------|--7-----------------7----|--7-----------------7----|
-------------------------|--0-----------------0----|--0-----------------0----|

  Am                        D                         Em 
--5----5---5--5-x-5-5----|--5----5---5--5-x-5-5----|--7----7---7--7-x-7-7----|
--5----5---5--5-x-5-5----|--7----7---7--7-x-7-7----|--8----8---8--8-x-8-8----|
--5----5---5--5-x-5-5----|--7----7---7--7-x-7-7----|--9----9---9--9-x-9-9----|
--7----7---7--7---7-7----|--7----7---7--7---7-7----|--9----9---9--9---9-9----|
--7----7---7--7---7-7----|--5----------------------|--7-----------------7----|
--5----------------------|-------------------------|--0-----------------0----|

  Em                        C                         C 
--7----7---7--7-x-7-7----|--3----3---3--3-x-3-3----|--3----3---3--3-x-3-3----|
--8----8---8--8-x-8-8----|--5----5---5--5-x-5-5----|--5----5---5--5-x-5-5----|
--9----9---9--9-x-9-9----|--5----5---5--5-x-5-5----|--5----5---5--5-x-5-5----|
--9----9---9--9---9-9----|--5----------------------|--5----------------------|
--7-----------------7----|--3----------------------|--3----------------------|
--0-----------------0----|-------------------------|-------------------------|

  Em                        Em                        Am 
--7----7---7--7-x-7-7----|--7----7---7--7-x-7-7----|--5----5---5--5-x-5-5----|
--8----8---8--8-x-8-8----|--8----8---8--8-x-8-8----|--5----5---5--5-x-5-5----|
--9----9---9--9-x-9-9----|--9----9---9--9-x-9-9----|--5----5---5--5-x-5-5----|
--9----9---9--9---9-9----|--9----9---9--9---9-9----|--7----7---7--7---7-7----|
--7-----------------7----|--7-----------------7----|--7----7---7--7---7-7----|
--0-----------------0----|--0-----------------0----|--5----------------------|

  D                         Em                        Em 
--5----5---5--5-x-5-5----|--7----7---7--7-x-7-7----|--7----7---7--7-x-7-7----|
--7----7---7--7-x-7-7----|--8----8---8--8-x-8-8----|--8----8---8--8-x-8-8----|
--7----7---7--7-x-7-7----|--9----9---9--9-x-9-9----|--9----9---9--9-x-9-9----|
--7----7---7--7---7-7----|--9----9---9--9---9-9----|--9----9---9--9---9-9----|
--5----------------------|--7-----------------7----|--7-----------------7----|
-------------------------|--0-----------------0----|--0-----------------0----|

  Em                        Em                        C 
--7----7---7--7-x-7-7----|--7----7---7--7-x-7-7----|--3----3---3--3-x-3-3----|
--8----8---8--8-x-8-8----|--8----8---8--8-x-8-8----|--5----5---5--5-x-5-5----|
--9----9---9--9-x-9-9----|--9----9---9--9-x-9-9----|--5----5---5--5-x-5-5----|
--9----9---9--9---9-9----|--9----9---9--9---9-9----|--5----------------------|
--7-----------------7----|--7-----------------7----|--3----------------------|
--0-----------------0----|--0-----------------0----|-------------------------|

  Em                        Em                        Em 
--7----7---7--7-x-7-7----|--7----7---7--7-x-7-7----|--7----7---7--7-x-7-7----|
--8----8---8--8-x-8-8----|--8----8---8--8-x-8-8----|--8----8---8--8-x-8-8----|
--9----9---9--9-x-9-9----|--9----9---9--9-x-9-9----|--9----9---9--9-x-9-9----|
--9----9---9--9---9-9----|--9----9---9--9---9-9----|--9----9---9--9---9-9----|
--7-----------------7----|--7-----------------7----|--7-----------------7----|
--0-----------------0----|--0-----------------0----|--0-----------------0----|

  C                         Em                        C 
--3----3---3--3-x-3-3----|--7----7---7--7-x-7-7----|--3----3---3--3-x-3-3----|
--5----5---5--5-x-5-5----|--8----8---8--8-x-8-8----|--5----5---5--5-x-5-5----|
--5----5---5--5-x-5-5----|--9----9---9--9-x-9-9----|--5----5---5--5-x-5-5----|
--5----------------------|--9----9---9--9---9-9----|--5----------------------|
--3----------------------|--7-----------------7----|--3----------------------|
-------------------------|--0-----------------0----|-------------------------|

  C                         G                         G 
--3----3---3--3-x-3-3----|--3----3---3--3-3-3-3----|--3----3---3--3-x-3-3----|
--5----5---5--5-x-5-5----|--3----3---3--3-x-3-3----|--3----3---3--3-x-3-3----|
--5----5---5--5-x-5-5----|--4----4---4--4-x-4-4----|--4----4---4--4-x-4-4----|
--5----------------------|--5----------------------|--5----------------------|
--3----------------------|--5----------------------|--5----------------------|
-------------------------|--3----------------------|--3----------------------|

  Am                        Am                        Em 
--5----5---5--5-x-5-5----|--5----5---5--5-x-5-5----|--7----7---7--7-x-7-7----|
--5----5---5--5-x-5-5----|--5----5---5--5-x-5-5----|--8----8---8--8-x-8-8----|
--5----5---5--5-x-5-5----|--5----5---5--5-x-5-5----|--9----9---9--9-x-9-9----|
--7----7---7--7---7-7----|--7----7---7--7---7-7----|--9----9---9--9---9-9----|
--7----7---7--7---7-7----|--7----7---7--7---7-7----|--7-----------------7----|
--5----------------------|--5----------------------|--0-----------------0----|

  Em                        C                         C 
--7----7---7--7-x-7-7----|--3----3---3--3-x-3-3----|--3----3---3--3-x-3-3----|
--8----8---8--8-x-8-8----|--5----5---5--5-x-5-5----|--5----5---5--5-x-5-5----|
--9----9---9--9-x-9-9----|--5----5---5--5-x-5-5----|--5----5---5--5-x-5-5----|
--9----9---9--9---9-9----|--5----------------------|--5----------------------|
--7-----------------7----|--3----------------------|--3----------------------|
--0-----------------0----|-------------------------|-------------------------|

  G                         G                         Am 
--3----3---3--3-x-3-3----|--3----3---3--3-x-3-3----|--5----5---5--5-x-5-5----|
--3----3---3--3-x-3-3----|--3----3---3--3-x-3-3----|--5----5---5--5-x-5-5----|
--4----4---4--4-x-4-4----|--4----4---4--4-x-4-4----|--5----5---5--5-x-5-5----|
--5----------------------|--5----------------------|--7----7---7--7---7-7----|
--5----------------------|--5----------------------|--7----7---7--7---7-7----|
--3----------------------|--3----------------------|--5----------------------|

  Am                        Em                        Em 
--5----5---5--5-x-5-5----|--7----7---7--7-x-7-7----|--7----7---7--7-x-7-7----|
--5----5---5--5-x-5-5----|--8----8---8--8-x-8-8----|--8----8---8--8-x-8-8----|
--5----5---5--5-x-5-5----|--9----9---9--9-x-9-9----|--9----9---9--9-x-9-9----|
--7----7---7--7---7-7----|--9----9---9--9---9-9----|--9----9---9--9---9-9----|
--7----7---7--7---7-7----|--7-----------------7----|--7-----------------7----|
--5----------------------|--0-----------------0----|--0-----------------0----|

  C                         C                         Em 
--3----3---3--3-x-3-3----|--3----3---3--3-x-3-3----|--7----7---7--7-x-7-7----|
--5----5---5--5-x-5-5----|--5----5---5--5-x-5-5----|--8----8---8--8-x-8-8----|
--5----5---5--5-x-5-5----|--5----5---5--5-x-5-5----|--9----9---9--9-x-9-9----|
--5----------------------|--5----------------------|--9----9---9--9---9-9----|
--3----------------------|--3----------------------|--7-----------------7----|
-------------------------|-------------------------|--0-----------------0----|

  Em                        Am                        D 
--7----7---7--7-x-7-7----|--5----5---5--5-x-5-5----|--5----5---5--5-x-5-5----|
--8----8---8--8-x-8-8----|--5----5---5--5-x-5-5----|--7----7---7--7-x-7-7----|
--9----9---9--9-x-9-9----|--5----5---5--5-x-5-5----|--7----7---7--7-x-7-7----|
--9----9---9--9---9-9----|--7----7---7--7---7-7----|--7----7---7--7---7-7----|
--7-----------------7----|--7----7---7--7---7-7----|--5----------------------|
--0-----------------0----|--5----------------------|-------------------------|

  Em                        Em                        C 
--7----7---7--7-x-7-7----|--7----7---7--7-x-7-7----|--3----3---3--3-x-3-3----|
--8----8---8--8-x-8-8----|--8----8---8--8-x-8-8----|--5----5---5--5-x-5-5----|
--9----9---9--9-x-9-9----|--9----9---9--9-x-9-9----|--5----5---5--5-x-5-5----|
--9----9---9--9---9-9----|--9----9---9--9---9-9----|--5----------------------|
--7-----------------7----|--7-----------------7----|--3----------------------|
--0-----------------0----|--0-----------------0----|-------------------------|

  C                         Em                        Em 
--3----3---3--3-x-3-3----|--7----7---7--7-x-7-7----|--7----7---7--7-x-7-7----|
--5----5---5--5-x-5-5----|--8----8---8--8-x-8-8----|--8----8---8--8-x-8-8----|
--5----5---5--5-x-5-5----|--9----9---9--9-x-9-9----|--9----9---9--9-x-9-9----|
--5----------------------|--9----9---9--9---9-9----|--9----9---9--9---9-9----|
--3----------------------|--7-----------------7----|--7-----------------7----|
-------------------------|--0-----------------0----|--0-----------------0----|

  Am                        D                         Em 
--5----5---5--5-x-5-5----|--5----5---5--5-x-5-5----|--7----7---7--7-x-7-7----|
--5----5---5--5-x-5-5----|--7----7---7--7-x-7-7----|--8----8---8--8-x-8-8----|
--5----5---5--5-x-5-5----|--7----7---7--7-x-7-7----|--9----9---9--9-x-9-9----|
--7----7---7--7---7-7----|--7----7---7--7---7-7----|--9----9---9--9---9-9----|
--7----7---7--7---7-7----|--5----------------------|--7-----------------7----|
--5----------------------|-------------------------|--0-----------------0----|

  Em                        C                         C 
--7----7---7--7-x-7-7----|--3----3---3--3-x-3-3----|--3----3---3--3-x-3-3----|
--8----8---8--8-x-8-8----|--5----5---5--5-x-5-5----|--5----5---5--5-x-5-5----|
--9----9---9--9-x-9-9----|--5----5---5--5-x-5-5----|--5----5---5--5-x-5-5----|
--9----9---9--9---9-9----|--5----------------------|--5----------------------|
--7-----------------7----|--3----------------------|--3----------------------|
--0-----------------0----|-------------------------|-------------------------|

  Em                        Em                        Am 
--7----7---7--7-x-7-7----|--7----7---7--7-x-7-7----|--5----5---5--5-x-5-5----|
--8----8---8--8-x-8-8----|--8----8---8--8-x-8-8----|--5----5---5--5-x-5-5----|
--9----9---9--9-x-9-9----|--9----9---9--9-x-9-9----|--5----5---5--5-x-5-5----|
--9----9---9--9---9-9----|--9----9---9--9---9-9----|--7----7---7--7---7-7----|
--7-----------------7----|--7-----------------7----|--7----7---7--7---7-7----|
--0-----------------0----|--0-----------------0----|--5----------------------|

  D                         Em                        Em 
--5----5---5--5-x-5-5----|--7----7---7--7-x-7-7----|--7----7---7--7-x-7-7----|
--7----7---7--7-x-7-7----|--8----8---8--8-x-8-8----|--8----8---8--8-x-8-8----|
--7----7---7--7-x-7-7----|--9----9---9--9-x-9-9----|--9----9---9--9-x-9-9----|
--7----7---7--7---7-7----|--9----9---9--9---9-9----|--9----9---9--9---9-9----|
--5----------------------|--7-----------------7----|--7-----------------7----|
-------------------------|--0-----------------0----|--0-----------------0----|

  C                         C                         Em 
--3----3---3--3-x-3-3----|--3----3---3--3-x-3-3----|--7----7---7--7-x-7-7----|
--5----5---5--5-x-5-5----|--5----5---5--5-x-5-5----|--8----8---8--8-x-8-8----|
--5----5---5--5-x-5-5----|--5----5---5--5-x-5-5----|--9----9---9--9-x-9-9----|
--5----------------------|--5----------------------|--9----9---9--9---9-9----|
--3----------------------|--3----------------------|--7-----------------7----|
-------------------------|-------------------------|--0-----------------0----|

  Em                        Am                        D 
--7----7---7--7-x-7-7----|--5----5---5--5-x-5-5----|--5----5---5--5-x-5-5----|
--8----8---8--8-x-8-8----|--5----5---5--5-x-5-5----|--7----7---7--7-x-7-7----|
--9----9---9--9-x-9-9----|--5----5---5--5-x-5-5----|--7----7---7--7-x-7-7----|
--9----9---9--9---9-9----|--7----7---7--7---7-7----|--7----7---7--7---7-7----|
--7-----------------7----|--7----7---7--7---7-7----|--5----------------------|
--0-----------------0----|--5----------------------|-------------------------|

  Em                        Em                        C 
--7----7---7--7-x-7-7----|--7----7---7--7-x-7-7----|--3----3---3--3-x-3-3----|
--8----8---8--8-x-8-8----|--8----8---8--8-x-8-8----|--5----5---5--5-x-5-5----|
--9----9---9--9-x-9-9----|--9----9---9--9-x-9-9----|--5----5---5--5-x-5-5----|
--9----9---9--9---9-9----|--9----9---9--9---9-9----|--5----------------------|
--7-----------------7----|--7-----------------7----|--3----------------------|
--0-----------------0----|--0-----------------0----|-------------------------|

  C                         Em                        Em 
--3----3---3--3-x-3-3----|--7----7---7--7-x-7-7----|--7----7---7--7-x-7-7----|
--5----5---5--5-x-5-5----|--8----8---8--8-x-8-8----|--8----8---8--8-x-8-8----|
--5----5---5--5-x-5-5----|--9----9---9--9-x-9-9----|--9----9---9--9-x-9-9----|
--5----------------------|--9----9---9--9---9-9----|--9----9---9--9---9-9----|
--3----------------------|--7-----------------7----|--7-----------------7----|
-------------------------|--0-----------------0----|--0-----------------0----|

  Am                        D                         Em 
--5----5---5--5-x-5-5----|--5----5---5--5-x-5-5----|--7----7---7--7-x-7-7----|
--5----5---5--5-x-5-5----|--7----7---7--7-x-7-7----|--8----8---8--8-x-8-8----|
--5----5---5--5-x-5-5----|--7----7---7--7-x-7-7----|--9----9---9--9-x-9-9----|
--7----7---7--7---7-7----|--7----7---7--7---7-7----|--9----9---9--9---9-9----|
--7----7---7--7---7-7----|--5----------------------|--7-----------------7----|
--5----------------------|-------------------------|--0-----------------0----|

  Em                        C                         C 
--7----7---7--7-x-7-7----|--3----3---3--3-x-3-3----|--3----3---3--3-x-3-3----|
--8----8---8--8-x-8-8----|--5----5---5--5-x-5-5----|--5----5---5--5-x-5-5----|
--9----9---9--9-x-9-9----|--5----5---5--5-x-5-5----|--5----5---5--5-x-5-5----|
--9----9---9--9---9-9----|--5----------------------|--5----------------------|
--7-----------------7----|--3----------------------|--3----------------------|
--0-----------------0----|-------------------------|-------------------------|

  Em                        Em                        Am 
--7----7---7--7-x-7-7----|--7----7---7--7-x-7-7----|--5----5---5--5-x-5-5----|
--8----8---8--8-x-8-8----|--8----8---8--8-x-8-8----|--5----5---5--5-x-5-5----|
--9----9---9--9-x-9-9----|--9----9---9--9-x-9-9----|--5----5---5--5-x-5-5----|
--9----9---9--9---9-9----|--9----9---9--9---9-9----|--7----7---7--7---7-7----|
--7-----------------7----|--7-----------------7----|--7----7---7--7---7-7----|
--0-----------------0----|--0-----------------0----|--5----------------------|

  D                         Em                        Em 
--5----5---5--5-x-5-5----|--7----7---7--7-x-7-7----|--7----7---7--7-x-7-7----|
--7----7---7--7-x-7-7----|--8----8---8--8-x-8-8----|--8----8---8--8-x-8-8----|
--7----7---7--7-x-7-7----|--9----9---9--9-x-9-9----|--9----9---9--9-x-9-9----|
--7----7---7--7---7-7----|--9----9---9--9---9-9----|--9----9---9--9---9-9----|
--5----------------------|--7-----------------7----|--7-----------------7----|
-------------------------|--0-----------------0----|--0-----------------0----|

  Am                        D                         Em 
--5----5---5--5-x-5-5----|--5----5---5--5-x-5-5----|--7----7---7--7-x-7-7----|
--5----5---5--5-x-5-5----|--7----7---7--7-x-7-7----|--8----8---8--8-x-8-8----|
--5----5---5--5-x-5-5----|--7----7---7--7-x-7-7----|--9----9---9--9-x-9-9----|
--7----7---7--7---7-7----|--7----7---7--7---7-7----|--9----9---9--9---9-9----|
--7----7---7--7---7-7----|--5----------------------|--7-----------------7----|
--5----------------------|-------------------------|--0-----------------0----|

  Em                        Am                  D 
--7----7---7--7-x-7-7----|--5----------------|--5----------------|
--8----8---8--8-x-8-8----|--5----------------|--7----------------|
--9----9---9--9-x-9-9----|--5----------------|--7----------------|
--9----9---9--9---9-9----|--7----------------|--7----------------|
--7-----------------7----|--7----------------|--5----------------|
--0-----------------0----|--5----------------|-------------------|

  Cm/G 
--3----------------|------------------|------------------||
--4----------------|------------------|------------------||
--5----------------|------------------|------------------||
--5----------------|------------------|------------------||
-------------------|------------------|------------------||
-------------------|------------------|------------------||

© Авторские права на тексты, песни, видео и другую представленную информацию принадлежат правообладателям. Аккорды, табы, gtp и тексты песен взяты из открытых источников.
Возрастная категория сайта: 18+
Тексты некоторых песен могут содержать нецензурные выражения, брань.
© 2020 guitar-chords.ru