Acoustic guitar (steel)
                                           G 
E||------------------|------------------|--3----------------|
B||------------------|------------------|--0----------------|
G||------------------|------------------|--0----------------|
D||------------------|------------------|--0----------------|
A||------------------|------------------|--2----------------|
E||------------------|------------------|--3----------------|

  C                   Em                                     G 
--3----------------|--0----------------|------------------|--3----------------|
--5----------------|--0----------------|------------------|--0----------------|
--5----------------|--0----------------|------------------|--0----------------|
--5----------------|--2----------------|------------------|--0----------------|
--3----------------|--2----------------|------------------|--2----------------|
-------------------|-------------------|------------------|--3----------------|

  C                   Em 
--3----------------|--0----------------|------------------|
--5----------------|--0----------------|------------------|
--5----------------|--0----------------|------------------|
--5----------------|--2----------------|------------------|
--3----------------|--2----------------|------------------|
-------------------|-------------------|------------------|

  C                           B 
-------3----3--3----3---3--|-------2----2--2----2---2--|
-------5----5--5----5---5--|-------4----4--4----4---4--|
-------5----5--5----5---5--|-------4----4--4----4---4--|
--5-------5-------5---5----|--4-------4-------4---4----|
--3-------3-------3---3----|--2-------2-------2---2----|
---------------------------|---------------------------|

  Em                          G 
---------------------------|---------------------------|
-------0----0--0----0---0--|-------3----3--3----3---3--|
-------0----0--0----0---0--|-------4----4--4----4---4--|
-------2----2--2----2---2--|-------5----5--5----5---5--|
--2-------2-------2---2----|--5-------5-------5---5----|
--0-------0-------0---0----|--3-------3-------3---3----|

  C                           B 
-------3----3--3----3---3--|-------2----2--2----2---2--|
-------5----5--5----5---5--|-------4----4--4----4---4--|
-------5----5--5----5---5--|-------4----4--4----4---4--|
--5-------5-------5---5----|--4-------4-------4---4----|
--3-------3-------3---3----|--2-------2-------2---2----|
---------------------------|---------------------------|

  Em                          G                           C 
---------------------------|---------------------------|--3----------------|
-------0----0--0----0---0--|-------3----3--3----3---3--|--5----------------|
-------0----0--0----0---0--|-------4----4--4----4---4--|--5----------------|
-------2----2--2----2---2--|-------5----5--5----5---5--|--5----------------|
--2-------2-------2---2----|--5-------5-------5---5----|--3----------------|
--0-------0-------0---0----|--3-------3-------3---3----|-------------------|

  B                   Em 
-------------------|---------------------------|---------------------------|
--4----------------|-------0----0--0----0---0--|-------0----0--0----0---0--|
--4----------------|-------0----0--0----0---0--|-------0----0--0----0---0--|
--4----------------|-------2----2--2----2---2--|-------2----2--2----2---2--|
--2----------------|--2-------2-------2---2----|--2-------2-------2---2----|
--2----------------|--0-------0-------0---0----|--0-------0-------0---0----|

  G 
---------------------------|---------------------------|
-------3----3--3----3---3--|-------3----3--3----3---3--|
-------4----4--4----4---4--|-------4----4--4----4---4--|
-------5----5--5----5---5--|-------5----5--5----5---5--|
--5-------5-------5---5----|--5-------5-------5---5----|
--3-------3-------3---3----|--3-------3-------3---3----|

  Am 
-------0----0--0----0---0--|-------0----0---0----0---0--|
-------1----1--1----1---1--|-------1----1---1----1---1--|
-------2----2--2----2---2--|-------2----2---2----2---2--|
--2-------2-------2---2----|--2-------2---2----2---2----|
--0-------0-------0---0----|--0-------0---0----0---0----|
---------------------------|----------------------------|

  Bm                           Em 
-------2----2---2----2---2--|---------------------------|
-------3----3---3----3---3--|-------0----0--0----0---0--|
-------4----4---4----4---4--|-------0----0--0----0---0--|
--4-------4---4----4---4----|-------2----2--2----2---2--|
--2-------2---2----2---2----|--2-------2-------2---2----|
----------------------------|--0-------0-------0---0----|

  C                           B 
-------3----3--3----3---3--|-------2----2--2----2---2--|
-------5----5--5----5---5--|-------4----4--4----4---4--|
-------5----5--5----5---5--|-------4----4--4----4---4--|
--5-------5-------5---5----|--4-------4-------4---4----|
--3-------3-------3---3----|--2-------2-------2---2----|
---------------------------|---------------------------|

  Em                          G 
---------------------------|----------------------------|
-------0----0--0----0---0--|-------3----3---3----3---3--|
-------0----0--0----0---0--|-------4----4---4----4---4--|
-------2----2--2----2---2--|-------5----5---5----5---5--|
--2-------2-------2---2----|--5-------5---5----5---5----|
--0-------0-------0---0----|--3-------3---3----3---3----|

  C                           B 
-------3----3--3----3---3--|-------2----2---2----2---2--|
-------5----5--5----5---5--|-------4----4---4----4---4--|
-------5----5--5----5---5--|-------4----4---4----4---4--|
--5-------5-------5---5----|--4-------4---4----4---4----|
--3-------3-------3---3----|--2-------2---2----2---2----|
---------------------------|----------------------------|

  Em                          G 
---------------------------|---------------------------|
-------0----0--0----0---0--|-------3----3--3----3---3--|
-------0----0--0----0---0--|-------4----4--4----4---4--|
-------2----2--2----2---2--|-------5----5--5----5---5--|
--2-------2-------2---2----|--5-------5-------5---5----|
--0-------0-------0---0----|--3-------3-------3---3----|

  C                           B 
-------3----3--3----3---3--|-------2----2---2----2---2--|
-------5----5--5----5---5--|-------4----4---4----4---4--|
-------5----5--5----5---5--|-------4----4---4----4---4--|
--5-------5-------5---5----|--4-------4---4----4---4----|
--3-------3-------3---3----|--2-------2---2----2---2----|
---------------------------|----------------------------|

  Em                          G 
---------------------------|---------------------------|
-------0----0--0----0---0--|-------3----3--3----3---3--|
-------0----0--0----0---0--|-------4----4--4----4---4--|
-------2----2--2----2---2--|-------5----5--5----5---5--|
--2-------2-------2---2----|--5-------5-------5---5----|
--0-------0-------0---0----|--3-------3-------3---3----|

  C                           Bm 
-------3----3--3----3---3--|-------2----2--2----2---2--|
-------5----5--5----5---5--|-------4----4--4----4---4--|
-------5----5--5----5---5--|-------4----4--4----4---4--|
--5-------5-------5---5----|--4-------4-------4---4----|
--3-------3-------3---3----|--2-------2-------2---2----|
---------------------------|---------------------------|

  Em                          G 
---------------------------|---------------------------|
-------0----0--0----0---0--|-------3----3--3----3---3--|
-------0----0--0----0---0--|-------4----4--4----4---4--|
-------2----2--2----2---2--|-------5----5--5----5---5--|
--2-------2-------2---2----|--5-------5-------5---5----|
--0-------0-------0---0----|--3-------3-------3---3----|

  C                           Bm 
-------3----3--3----3---3--|-------2----2--2----2---2--|
-------5----5--5----5---5--|-------4----4--4----4---4--|
-------5----5--5----5---5--|-------4----4--4----4---4--|
--5-------5-------5---5----|--4-------4-------4---4----|
--3-------3-------3---3----|--2-------2-------2---2----|
---------------------------|---------------------------|

  Em                          G                           C 
---------------------------|---------------------------|--3----------------|
-------0----0--0----0---0--|-------3----3--3----3---3--|--5----------------|
-------0----0--0----0---0--|-------4----4--4----4---4--|--5----------------|
-------2----2--2----2---2--|-------5----5--5----5---5--|--5----------------|
--2-------2-------2---2----|--5-------5-------5---5----|--3----------------|
--0-------0-------0---0----|--3-------3-------3---3----|-------------------|

  B                   Em 
-------------------|--------------------------|---------------------------|
--4----------------|-------0----0--0----0--0--|-------0----0--0----0---0--|
--4----------------|-------0----0--0----0--0--|-------0----0--0----0---0--|
--4----------------|-------2----2--2----2--2--|-------2----2--2----2---2--|
--2----------------|--2-------2-------2-------|--2-------2-------2---2----|
--2----------------|--0-------0-------0-------|--0-------0-------0---0----|

  G 
---------------------------|---------------------------|
-------3----3--3----3---3--|-------3----3--3----3---3--|
-------4----4--4----4---4--|-------4----4--4----4---4--|
-------5----5--5----5---5--|-------5----5--5----5---5--|
--5-------5-------5---5----|--5-------5-------5---5----|
--3-------3-------3---3----|--3-------3-------3---3----|

  Am 
-------0----0--0----0---0--|-------0----0---0----0---0--|
-------1----1--1----1---1--|-------1----1---1----1---1--|
-------2----2--2----2---2--|-------2----2---2----2---2--|
--2-------2-------2---2----|--2-------2---2----2---2----|
--0-------0-------0---0----|--0-------0---0----0---0----|
---------------------------|----------------------------|

  Bm                          Em 
-------2----2--2----2---2--|---------------------------|
-------3----3--3----3---3--|-------0----0--0----0---0--|
-------4----4--4----4---4--|-------0----0--0----0---0--|
--4-------4-------4---4----|-------2----2--2----2---2--|
--2-------2-------2---2----|--2-------2-------2---2----|
---------------------------|--0-------0-------0---0----|

  C                           B 
-------3----3--3----3---3--|-------2----2--2----2---2--|
-------5----5--5----5---5--|-------4----4--4----4---4--|
-------5----5--5----5---5--|-------4----4--4----4---4--|
--5-------5-------5---5----|--4-------4-------4---4----|
--3-------3-------3---3----|--2-------2-------2---2----|
---------------------------|---------------------------|

  Em                          G 
---------------------------|---------------------------|
-------0----0--0----0---0--|-------3----3--3----3---3--|
-------0----0--0----0---0--|-------4----4--4----4---4--|
-------2----2--2----2---2--|-------5----5--5----5---5--|
--2-------2-------2---2----|--5-------5-------5---5----|
--0-------0-------0---0----|--3-------3-------3---3----|

  C                           B 
-------3----3--3----3---3--|-------2----2--2----2---2--|
-------5----5--5----5---5--|-------4----4--4----4---4--|
-------5----5--5----5---5--|-------4----4--4----4---4--|
--5-------5-------5---5----|--4-------4-------4---4----|
--3-------3-------3---3----|--2-------2-------2---2----|
---------------------------|---------------------------|

  Em                          G 
---------------------------|---------------------------|
-------0----0--0----0---0--|-------3----3--3----3---3--|
-------0----0--0----0---0--|-------4----4--4----4---4--|
-------2----2--2----2---2--|-------5----5--5----5---5--|
--2-------2-------2---2----|--5-------5-------5---5----|
--0-------0-------0---0----|--3-------3-------3---3----|

  C                           B 
-------3----3--3----3---3--|-------2----2--2----2---2--|
-------5----5--5----5---5--|-------4----4--4----4---4--|
-------5----5--5----5---5--|-------4----4--4----4---4--|
--5-------5-------5---5----|--4-------4-------4---4----|
--3-------3-------3---3----|--2-------2-------2---2----|
---------------------------|---------------------------|

  Em                          G 
---------------------------|---------------------------|
-------0----0--0----0---0--|-------3----3--3----3---3--|
-------0----0--0----0---0--|-------4----4--4----4---4--|
-------2----2--2----2---2--|-------5----5--5----5---5--|
--2-------2-------2---2----|--5-------5-------5---5----|
--0-------0-------0---0----|--3-------3-------3---3----|

  C                           B 
-------3----3--3----3---3--|-------2----2--2----2---2--|
-------5----5--5----5---5--|-------4----4--4----4---4--|
-------5----5--5----5---5--|-------4----4--4----4---4--|
--5-------5-------5---5----|--4-------4-------4---4----|
--3-------3-------3---3----|--2-------2-------2---2----|
---------------------------|---------------------------|

  Em                            G 
-----------------------------|---------------------------|
-------0----0--0------0---0--|-------3----3--3----3---3--|
-------0----0--0------0---0--|-------4----4--4----4---4--|
-------2----2--2------2---2--|-------5----5--5----5---5--|
--2-------2---------2---2----|--5-------5-------5---5----|
--0-------0------0--0---0----|--3-------3-------3---3----|

  C                           B 
-------3----3--3----3---3--|-------2----2--2----2---2--|
-------5----5--5----5---5--|-------4----4--4----4---4--|
-------5----5--5----5---5--|-------4----4--4----4---4--|
--5-------5-------5---5----|--4-------4-------4---4----|
--3-------3-------3---3----|--2-------2-------2---2----|
---------------------------|---------------------------|

  Em                          G 
---------------------------|---------------------------|
-------0----0--0----0---0--|-------3----3--3----3---3--|
-------0----0--0----0---0--|-------4----4--4----4---4--|
-------2----2--2----2---2--|-------5----5--5----5---5--|
--2-------2-------2---2----|--5-------5-------5---5----|
--0-------0-------0---0----|--3-------3-------3---3----|

  C                           B 
-------3----3--3----3---3--|-------2----2--2----2---2--|
-------5----5--5----5---5--|-------4----4--4----4---4--|
-------5----5--5----5---5--|-------4----4--4----4---4--|
--5-------5-------5---5----|--4-------4-------4---4----|
--3-------3-------3---3----|--2-------2-------2---2----|
---------------------------|---------------------------|

  Em                          G 
---------------------------|---------------------------|
-------0----0--0----0---0--|-------3----3--3----3---3--|
-------0----0--0----0---0--|-------4----4--4----4---4--|
-------2----2--2----2---2--|-------5----5--5----5---5--|
--2-------2-------2---2----|--5-------5-------5---5----|
--0-------0-------0---0----|--3-------3-------3---3----|

  C                           B 
-------3----3--3----3---3--|-------2----2--2----2---2--|
-------5----5--5----5---5--|-------4----4--4----4---4--|
-------5----5--5----5---5--|-------4----4--4----4---4--|
--5-------5-------5---5----|--4-------4-------4---4----|
--3-------3-------3---3----|--2-------2-------2---2----|
---------------------------|---------------------------|

  Em                          G 
---------------------------|---------------------------|
-------0----0--0----0---0--|-------3----3--3----3---3--|
-------0----0--0----0---0--|-------4----4--4----4---4--|
-------2----2--2----2---2--|-------5----5--5----5---5--|
--2-------2-------2---2----|--5-------5-------5---5----|
--0-------0-------0---0----|--3-------3-------3---3----|

  C                           B 
-------3----3--3----3---3--|-------2----2--2----2---2--|
-------5----5--5----5---5--|-------4----4--4----4---4--|
-------5----5--5----5---5--|-------4----4--4----4---4--|
--5-------5-------5---5----|--4-------4-------4---4----|
--3-------3-------3---3----|--2-------2-------2---2----|
---------------------------|---------------------------|

  Em                          G 
---------------------------|---------------------------|
-------0----0--0----0---0--|-------3----3--3----3---3--|
-------0----0--0----0---0--|-------4----4--4----4---4--|
-------2----2--2----2---2--|-------5----5--5----5---5--|
--2-------2-------2---2----|--5-------5-------5---5----|
--0-------0-------0---0----|--3-------3-------3---3----|

  C                           B 
-------3----3--3----3---3--|-------2----2--2----2---2--|
-------5----5--5----5---5--|-------4----4--4----4---4--|
-------5----5--5----5---5--|-------4----4--4----4---4--|
--5-------5-------5---5----|--4-------4-------4---4----|
--3-------3-------3---3----|--2-------2-------2---2----|
---------------------------|---------------------------|

  Em                          G 
---------------------------|---------------------------|
-------0----0--0----0---0--|-------3----3--3----3---3--|
-------0----0--0----0---0--|-------4----4--4----4---4--|
-------2----2--2----2---2--|-------5----5--5----5---5--|
--2-------2-------2---2----|--5-------5-------5---5----|
--0-------0-------0---0----|--3-------3-------3---3----|

  C                           B 
-------3----3--3----3---3--|-------2----2--2----2---2--|
-------5----5--5----5---5--|-------4----4--4----4---4--|
-------5----5--5----5---5--|-------4----4--4----4---4--|
--5-------5-------5---5----|--4-------4-------4---4----|
--3-------3-------3---3----|--2-------2-------2---2----|
---------------------------|---------------------------|

  Em                          G 
---------------------------|---------------------------|
-------0----0--0----0---0--|-------3----3--3----3---3--|
-------0----0--0----0---0--|-------4----4--4----4---4--|
-------2----2--2----2---2--|-------5----5--5----5---5--|
--2-------2-------2---2----|--5-------5-------5---5----|
--0-------0-------0---0----|--3-------3-------3---3----|

  C                           B 
-------3----3--3----3---3--|-------2----2--2----2---2--|
-------5----5--5----5---5--|-------4----4--4----4---4--|
-------5----5--5----5---5--|-------4----4--4----4---4--|
--5-------5-------5---5----|--4-------4-------4---4----|
--3-------3-------3---3----|--2-------2-------2---2----|
---------------------------|---------------------------|

  Em                          G 
---------------------------|---------------------------|
-------0----0--0----0---0--|-------3----3--3----3---3--|
-------0----0--0----0---0--|-------4----4--4----4---4--|
-------2----2--2----2---2--|-------5----5--5----5---5--|
--2-------2-------2---2----|--5-------5-------5---5----|
--0-------0-------0---0----|--3-------3-------3---3----|

  C                           B 
-------3----3--3----3---3--|-------2----2--2----2---2--|
-------5----5--5----5---5--|-------4----4--4----4---4--|
-------5----5--5----5---5--|-------4----4--4----4---4--|
--5-------5-------5---5----|--4-------4-------4---4----|
--3-------3-------3---3----|--2-------2-------2---2----|
---------------------------|---------------------------|

  Em                          G                           C 
---------------------------|---------------------------|--3----------------|
-------0----0--0----0---0--|-------3----3--3----3---3--|--5----------------|
-------0----0--0----0---0--|-------4----4--4----4---4--|--5----------------|
-------2----2--2----2---2--|-------5----5--5----5---5--|--5----------------|
--2-------2-------2---2----|--5-------5-------5---5----|--3----------------|
--0-------0-------0---0----|--3-------3-------3---3----|-------------------|

  B                   Em           Bm/D     G 
--2----------------|--0------------3-----|--3----------------|
--4----------------|--0------------5-----|--3----------------|
--4----------------|--0------------5-----|--4----------------|
--4----------------|--2------------5-----|--5----------------|
--2----------------|--2------------3-----|--5----------------|
-------------------|---------------------|-------------------|

  C                   B                   Em       G 
--3----------------|--2----------------|--0-----------------|
--5----------------|--4----------------|--0--------3--------|
--5----------------|--4----------------|--0--------4--------|
--5----------------|--4----------------|--2--------5--------|
--3----------------|--2----------------|--2--------5--------|
-------------------|-------------------|-----------3--------|

  G 
-------------------|--3----------------|------------------|------------------||
--3----------------|--5----------------|------------------|------------------||
--4----------------|--5----------------|------------------|------------------||
--5----------------|--5----------------|------------------|------------------||
--5----------------|--3----------------|------------------|------------------||
--3----------------|-------------------|------------------|------------------||


© Авторские права на тексты, песни, видео и другую представленную информацию принадлежат правообладателям. Аккорды, табы, gtp и тексты песен взяты из открытых источников.
Возрастная категория сайта: 18+
Тексты некоторых песен могут содержать нецензурные выражения, брань.
© 2020 guitar-chords.ru