Тут наверняка есть множество ошибок, надеюсь вы разберётесь,
подкаректируете.

(строй возможно не оригенален, но главное что звучит:
eBGDAD (шестая струна спущена на Ре)

* проигрыш/припев (Вечное лето рисуют дети...)
|------------------------------------------------------------------
|------------------------------------------------------------------
|-5--5-5--5-5----14-14-14-14/10----------9--9-9--9-9--7-7-7-7--7-7-
|-3--3-3--3-3----------------------------7--7-7--7-7---------------
|-3--3-3--3-3----12-12-12-12/8--8-8------7--7-7--7-7--5-5-5-5--5-5-
|-3--3-3--3-3----------------------------7--7-7--7-7---------------
*(Быстро моё солнце к закату катится...)
|------------------|-----------------
|------------------|-----------------
|-----5-------5----|-----9------9---- (перебор неточен точно)
|----3-3-----3-3---|----7-7----7-7---
|---3-------3---3--|---7------7---7--
|--3-------3-------|--7------7-------
*(Мир был бы другим я был бы живым)
|----------------------------------
|----------------------------------
|---7/9--9-9--9/10-----------------
|----------------------------------
|---5/7--7-7--7/8-8-8-8-8-8--------
|----------------------------------
*(Путаясь в шинелях умирая пятнистыми...)
|----------------***----------------
|----------------***----------------
|--5-5-----5--5--***--9-9-----9-9---
|--3-3-----3--3--***--7-7-----7-7-—9`````
|--3-3-----3--3--***--7-7-----7-7---
|--3-3-----3--3--***--7-7-----7-7---

вот так.


© Авторские права на тексты, песни, видео и другую представленную информацию принадлежат правообладателям. Аккорды, табы, gtp и тексты песен взяты из открытых источников.
Возрастная категория сайта: 18+
Тексты некоторых песен могут содержать нецензурные выражения, брань.
© 2020 guitar-chords.ru