в 1-м круге-D/A/D/A/A/E (3 струну подтягиваешь, а вторую ослабляешь) тууут такая вступа
E|-----------------0---
A|----------------0----
A|--------------8------
D|---5-66--0-0---------
A|---5-66--0-----------
D|---5-66--0----------- И грать как можно более задумчиво))

а куплет позамороченее буит!
E|--------------------------------------------------------------------------
A|--------------------------------------------------------------------------
A|---------8-----7-------7^8^7----8-----7------10-----------8-----7---------
D|-----------0-----0---------------0-----0--------0----5----5-----5---8-----
A|-------0-----0---------------------------------------5----------------5-5-
D|--0-----------------0--------0------0------0------0--5------5-----5-----5-
своБода Миф Сис Тема твоЯ О...... Та Недов
Пра---Ва добр е

E|------------------------
A|------------------------
A|---8-8--10-///////---4--
D|---5-5--7--/slide/---2--
A|---5-5--7--///////---0--
D|---5-5--7--///////------
Дёт
Да
утрА.............. А))
Я выделил заглавными те буквы в стихах которые совпадают с перебором

© Авторские права на тексты, песни, видео и другую представленную информацию принадлежат правообладателям. Аккорды, табы, gtp и тексты песен взяты из открытых источников.
Возрастная категория сайта: 18+
Тексты некоторых песен могут содержать нецензурные выражения, брань.
© 2020 guitar-chords.ru