*вступление/проигрышь №1
Гитара №1
e|--------------------------------------------------------------------------------
B|--8-8-8-10--10-10-10--7-7-7-------------8-8-8-10-10-12-12-12--7-7-7-------------
G|-----------------------------7-7-7-7-7-------------------------------7-7-7-7-7--
D|--------------------------------------------------------------------------------
A|--------------------------------------------------------------------------------
D|--------------------------------------------------------------------------------

Гитара №2
e|------5------------------2-----------
B|-----8---8--------------5---5--------
G|---7-------7---7-----4--------4---4--
D|-5-----------5-----2------------2----
A|-------------------------------------
D|-------------------------------------

*проигрыш №2/припев (Греет солнце...)
Гитара №1
e|--------------------------------------------
B|--------------------------------------------
G|-12-12-12-14--14-14-14--11-11-11-7--7-7-7---
D|--------------------------------------------
A|-10-10-10-12--12-12-12---9--9--9-5--5-5-5---
D|--------------------------------------------

e|--------------------------------------------
B|--------------------------------------------
G|-12-12-12-14-14-16-16-16-11-11-11-7--7-7-7--
D|--------------------------------------------
A|-10-10-10-12-12-14-14-14-9--9--9--5--5-5-5--
D|--------------------------------------------

Гитара №2
e|-5--5-5--5-5--5-5-5--2--2-2--2-2--2-2-2---
B|-8--8-8--8-8--8-8-8--5--5-5--5-5--5-5-5---
G|-7--7-7--7-7--7-7-7--4--4-4--4-4--4-4-4---
D|-5--5-5--5-5--5-5-5--2--2-2--2-2--2-2-2---
A|-5--5-5--5-5--5-5-5--2--2-2--2-2--2-2-2---
D|-5--5-5--5-5--5-5-5--2--2-2--2-2--2-2-2---

*куплет
(Я могу летать...)
e|--------------------------------------------------------------------
B|-7--7-8-7--7-8-7--7--7-8-7--7-8-7-----8--------8---7--7-8-7--7-7-7--
G|--------------------------------4--4--4--4--4--4--------------------
D|--------------------------------------------------------------------
A|--------------------------------------------------------------------
D|--------------------------------------------------------------------

e|---------------------------------------------------------
B|-7--7-8-7--7-8-7--7--7-8-7--7-8-10--12--12-12--7-7-8-7---
G|---------------------------------------------------------
D|---------------------------------------------------------
A|---------------------------------------------------------
D|---------------------------------------------------------

*проигрыш №2 (там ещё навороты гитары №2 мне не уловить,
похожу теже ноты тока в другом подяке хехе)
e|---------------------------------
B|---------------------------------
G|---------------------------------
D|-5--7-7-7-9-9----2--4-4-4-5-5----
A|-5--------------2----------------
D|-5--------------2----------------

****По прозьбе трудящихся, аккорды!!!

G Em 
(В куплете лудше играть их на барэ)
G355433
Em779987

*вступление
*куплет
Я могу летать, но так боюсь бывать на крышах
Когда во мне товя любовь вибрирует и мягко дышит

*припев
Греет солнце, моё солнце греет
Тока лето входит в наши планы
Мне нужны всего три цвета
Где вы, где вы растаманы

*куплет
Мне скоро ???? плен, твоих улыбчивых обьятий
И не смотря на ряд смешных общественных мероприятий

*припев
Греет солнце, моё солнце греет
Тока лето входит в наши планы
Мне нужны всего три цвета
Где вы, где вы растаманы

*проигрыш №3
*проигрыш №1
Раста красит моё солнце красным
Раста красит моё солнце жёлтым
Раста красит мир вокруг зелёным
Моим солнцем освещённый!!!

*припев
Растаман... ляу ля ляу

© Авторские права на тексты, песни, видео и другую представленную информацию принадлежат правообладателям. Аккорды, табы, gtp и тексты песен взяты из открытых источников.
Возрастная категория сайта: 18+
Тексты некоторых песен могут содержать нецензурные выражения, брань.
© 2020 guitar-chords.ru