E|---------------------------------------------------------------------
B|---------------------------------------------------------------------
G|---------------------------------------------------------------------
D|---6-6-7--7-7--11--11-11--7--7-7-6--11--11-11--11--7-6--4-4-7-x-7--7-
A|---4-4-3--3-3--7---7--7---0--0-0-0--7---7--7---7---0-4--4-4-4-x-3--3-
D|---4-4-3--3-3--7---7--7---0--0-0-0--7---7--7---7---0-4--4-4-4-x-3--3-

E|---------------------------------------
B|---------------------------------------
G|---------------------------------------
D|--/-11--11-11-7--7-7-6-11--11--11x11-10
A|--/-7---7--7--0--0-0-0-7---7---7-x7--6-
D|--/-7---7--7--0--0-0-0-7---7---7-x7--6-

© Авторские права на тексты, песни, видео и другую представленную информацию принадлежат правообладателям. Аккорды, табы, gtp и тексты песен взяты из открытых источников.
Возрастная категория сайта: 18+
Тексты некоторых песен могут содержать нецензурные выражения, брань.
© 2020 guitar-chords.ru