Here's the famous hit from A-Ha's latest album
Minor Earth Major Sky. I think it's a catchy tune and
at the same time really easy to play.
Sounds good on an acoustic, has a "new wave" kind of sound to it :)

chords:                                   no 2
---7---------5--------2---------5---------5--------5-------11-----------------
---7---------7--------2---------5---------8--------7-------12-----------------
---7---------7--------3---------6---------7--------6-------11-----------------
---9---------7--------4---------7---------7--------4-------13-----------------
---9---------5--------4---------7---------5--------4-------14-----------------
---7------------------2---------5--------------------------11-----------------
   Bm        D        F#        A         D7       F#       B 
I have used two variations of the F# -chord, the second one - marked as "no 2"
is to be used during the verse.
The B -chord is struck while ending that mega-high "Stayyyyyyy" - exactly when
the violins and drums kick in. (up-down-up-down..etc.. rythm)
riff A
--------------------------------------
--------------------------------------
--------9---9-9---9-------------------
----------------7---------------------
---7----------------------------------
--------------------------------------
riff B
--------------------------------------
--------------------------------------
--------11----------------------------
-----11-------------------------------
---9----------------------------------
--------------------------------------
riff C
--------------------------------------
--------------------------------------
-------12---12-12-11-11---------------
--------------------------------------
---7----------------------------------
--------------------------------------

solo
------------------------------------------------------------------------------
---7p5-7p5-5-------7-----7-8-7------------------------------------------------
---------------7-6---6---------7-7/9-7-6h7p6----6-7-9-4/64-------------------
------------------------------------------------------------------------------
------------------------------------------------------------------------------
------------------------------------------------------------------------------

------------------------------------------------------------------------------
---7-8---7--8-------7h8-7-----------------5---5-77----------------------------
-------6------6--6---------7-7/9-7--6/76---7------6--------7v8-7v------------
------------------------------------------------------------------------------
------------------------------------------------------------------------------
------------------------------------------------------------------------------

outro
------------------------------------------------------------------------------
---8--7-----7--------------------------------------------8--7-----7-----------
---------7-----7--7--6--6-6-6----------7-----------6-----------7-----7--7-----
------------------------------7-----7-----7-----7-----7-----------------------
---------------------------------9-----------9--------------------------------
------------------------------------------------------------------------------

--------------------------------------------------------(7)-------------------
----10--------------------------------7-------------(7)-----------------------
-6------6-----6--------7-----------6--------(6)-(7)---------------------------
-----------7--------7-----7-----7---------------------------------------------
-----------------9-----------9------------------------------------------------
------------------------------------------------------------------------------

INTRO
-----
riff A } x2
riff B
riff A } x3
riff C
riff A } x3
riff C
riff A } x2
BRIDGE ("moments will pass..")
------
Bm D F#A 
CHORUS ("Stay------....")
------
B 
Bm D F#A 
VERSE
-----
Bm D7 D A F#  (no 2)
Enjoy!

© Авторские права на тексты, песни, видео и другую представленную информацию принадлежат правообладателям. Аккорды, табы, gtp и тексты песен взяты из открытых источников.
Возрастная категория сайта: 18+
Тексты некоторых песен могут содержать нецензурные выражения, брань.
© 2020 guitar-chords.ru