Intro:    
|---------------------------|
|--000000000000000----------|
|---------------------------|
|---------------------------|

Verse:    
|------------------------------------------|
|------------------------------------------|
|--55555555--------------------------------| } 2 times
|---------------555555553333333233335555---|

|-------------------------------------------------------------------------------
|-------------------------------------------------------------------------------
|--55555555555555555555555555555555---------------------------------------------
|--------------------------------------------------3333333333333333555555555555-

--------------------------------------------|
--------------------------------------------|
---5-------------------5--------------------|
-3----555555555555---3----5555555555555555--|

Chorus:    
|------------------------------------------|
|------------------------------------------|
|--5555555555555555-----------3------------| } 2 times
|---------------------------3--3—3-555555--|

|--------------------------------------------------------------
|--------------------------------------------------------------
|--55555555--------------------------------3-------------------
|--------------55555555—77777777—22222222—3--33—0000-5555------

--------------------------------------------|
--------------------------------------------|
--5555-4444-2222-0000----3------------------|
------------------------3--33—0000-5555-----|

© Авторские права на тексты, песни, видео и другую представленную информацию принадлежат правообладателям. Аккорды, табы, gtp и тексты песен взяты из открытых источников.
Возрастная категория сайта: 18+
Тексты некоторых песен могут содержать нецензурные выражения, брань.
© 2020 guitar-chords.ru