As has been posted already the main riff goes like:
E ---------------|----------------|----------------|----------------
B ---2---2---2---|---3---3---3----|---3---3---3----|---3---3---3----
G ---2---2---2---|---2---2---0----|---2---2---0----|---2---2---0----
D ---2---2---2---|---0---0---0----|---0---0---0----|---0---0---0----
A ---0---0---0---|----------------|----------------|----------------
E ---------------|---2---2---3----|---2---2---3----|---2---2---3----

E -----------|-------
B -------2---|---2---
G ---2---2---|---2---
D ---0---2---|---2---
A -------0---|---0---
E ---2-------|-------

The chorus then goes like this:
   on the    high - way   to hell
E ----2---|-------------------2----|--
B ----3---|---2---2---2---2---3----|--
G ----2---|---2---2---2---2---2----|--
D ----0---|---2---2---2---2---0----|--
A ----0---|---0---0---0---0---0----|--
E ----2---|------------------------|--

And the guitar solo bit: (after 'Don't stop me!')
E --2---3---3---2-----|--3---3---3---2----2----|------5-------------------
B --3---3---3---3-----|--3---3---3---3----3----|----5---------5-5------5--
G --3---3---3---3-----|--3---3---3---3----2--7b(9)------7b(9)-----7b(9)---
D --0---0---0---0-----|--0---0---0---0----0----|--------------------------
A --0---0---0---0-----|--0---0---0---0----0----|--------------------------
E --------------------|------------------------|--------------------------

E -----------------------------------|----------------|------------------------
B -5--------5--5-------5--5--7--(8)r7b(8)-------------|------------------------
G ----7b(9)------7b(9)-------7--(8)r7b(8)--5-----7---5b(6)---------------------
D -----------------------------------|--------7-------|-------4--(5)r4--2------
A -----------------------------------|----------------|-----X-------------3--0-
E -----------------------------------|----------------|------------------------

E ----------5-----------|----------5--X---------|----------------5--
B -------------5--------|----------5--X-----5---|-------------------
G -2--4b(6)------(6)r4--|-2--0-----------4b(5)--|---2--0--X--/2-----
D ----------------------|-----------------------|-------------------
A ----------------------|-------0---------------|-------------------
E ----------------------|-----------------------|-------------------

E ---------------------------|-
B -5-------------------------|-
G ---4--(5)r4--X/14--X/18\---|-
D ---------------------------|-
A ---------------------------|-
E ---------------------------|-

The trill bit at the end is just frets 12 and 15 on the top string.

Notation used:
5b(7)  play at fret 5 and bend to fret 7
(7)r5  play string already bent to fret 7 and release to fret 5
4/6 and 6\4 slide up/down from.. to
X play muted string


© Авторские права на тексты, песни, видео и другую представленную информацию принадлежат правообладателям. Аккорды, табы, gtp и тексты песен взяты из открытых источников.
Возрастная категория сайта: 18+
Тексты некоторых песен могут содержать нецензурные выражения, брань.
© 2020 guitar-chords.ru