Intro:        
--|3---------------|5--3------3----|---------------|---------------|
--|3---------------|3--3--3-----3--|3--------------|3--------------|
--|0---------------|0---0----0-----|2--------------|2--------------|
--|----------------|---------------|0----------3-4-|0-----3-4--3-4-|
  |----------------|---------------|---------------|---------------|
  |----------------|---------------|---------------|---------------|

  |3---------------|5--3------3----|---------------|3--------------|
  |3---------------|3--3--3-----3--|3--------------|2--------------|
  |0---------------|0---0----0-----|2--------------|0--------------|
  |----------------|---------------|0----------3-4-|---------------|
  |----------------|---------------|---------------|---------------|
  |----------------|---------------|---------------|---------------|

Verse :| G  | C C G C G  | D  | G G C G C  | :||
Main riff for first verse:
  G         C   C   G     C   G    D      G   G   D     G   D 
--3--------(3)-(3)--3----(3)--3----2------3---3---2-----3---2-------------------
--0---------1---1---0-----1---0----3------0---0---3-----0---3-------------------
--0---------0---0---0-----0---0----2------0---0---2-----0---2-------------------
--0--------(2)-(2)--0-----2---0----0------0---0---0-----0---0-------------------
-(2)--------3---3--(2)----3--(2)---------(2)-(2)-------(2)----------------------
--3-----------------3---------3-----------3---3---------3-----------------------
Second Verse (one guitar plays same as first verse, other plays this):
--3--------(3)-(3)--3----(3)--3----2------3---3---2-----3---2-------------------
--0---------1---1---0-----1---0----3------3---3---3-----3---3-------------------
--0---------0---0---0-----0---0----2------0---0---2-----0---2-------------------
--0--------(2)-(2)--0-----2---0----0------0---0---0-----0---0-------------------
-(2)--------3---3--(2)----3--(2)---------(2)-(2)-------(2)----------------------
--3-----------------3---------3-------------------------------------------------
Verse
She was a fast machine
She kept my motor clean
She was the best damn woman I had ever seen
She has the sightless eyes
Telling me no lies
And knocking me out with those American thighs
Takin' more than her share
Had me fighting for air
She told me to come but I was already there
Cos the walls start shakin'
The ground was quakin'
My mind was achin'
And we were making it and.......
Chorus : | G A B  | C B  | D  | A B C B  | :||
 (both guitars):
-----3-----------------------2-------------------------3------------------------
-----3---------3-----3-------3----------3--------3-----0------------------------
-----0-----------0-----0-----2------------0----0-------0------------------------
-0---0--------------------0--0-------------------------0------------------------
-2---2---0-2-3-----2--------------0-2-3------2---------2------------------------
-3---3----------------------------------------------3--3------------------------
CHORUS Verse:
You shook me all night long } repeat
Verse
Working double time on the seduction line
She was one of a kind, she was mine all mine
Had to cool it down to take another round
Then I got back in the ring to take another swing
Cos the walls start shakin'... etc...
(I play the D  chord part of the intro on the 5th frett,
but it's more or less the same notes.)

© Авторские права на тексты, песни, видео и другую представленную информацию принадлежат правообладателям. Аккорды, табы, gtp и тексты песен взяты из открытых источников.
Возрастная категория сайта: 18+
Тексты некоторых песен могут содержать нецензурные выражения, брань.
© 2020 guitar-chords.ru