riff:        
G--3----3--5--7-7-5-5----7-5-5-3-3---7-5-3-0-0-3-0-3-0-
|--3----2----0----0----------------------------3---|
|--3----3----0----1----------------------------3---|
|--0----2----0----0-------------------------4------|
|--0----0----2----2--------5-0--5-0---3--4--5------|
|--x---------2----3--------3-0--3-0---3--4--5------|
|--3---------0------------------------1--2--3------|

Verse/Chorus:    |--3----2----0----0----------|
|--3----3----0----1----------|
|--0----2----0----0----------|
|--0----0----2----2----------|
|--x---------2----3----------|
|--3---------0---------------|

Pre-Chorus:    |--1----0----3--------------|
|--1----1----3--------------|
|--2----0----0--------------|
|--3----2----0--------------|
|-------3----x--------------|
|------------3--------------|

Bridge:        
|----------------------------------|
|----------------------------------|
|--3-------5---------3-------------|
|--3---3---5---5-----3---3---7---7-|
|--1---3---3---5-----1---3---7---7-|
|------1-------3---------1---5---5-|

During solo:    |-------------------------------------|
|-------------------------------------|
|--7---5---4---5----9---7---6---7-----|
|--7---5---4---5----9---7---6---7-----|
|--5---3---2---3----7---5---4---5-----|
|-------------------------------------|

Chorus 2:    |--0----0----2----2----------|
|--2----0----2----3----------|
|--2----1----2----2----------|
|--2----2----4----0----------|
|--0----2----4---------------|
|-------0----2---------------|

|--------------------------|
|--------------------------|
|----7-0---7-0---5--6--7---|
|----5-0---5-0---5--6--7---|
|----------------3--4--5---|

© Авторские права на тексты, песни, видео и другую представленную информацию принадлежат правообладателям. Аккорды, табы, gtp и тексты песен взяты из открытых источников.
Возрастная категория сайта: 18+
Тексты некоторых песен могут содержать нецензурные выражения, брань.
© 2020 guitar-chords.ru