#табулатура

    
A Single Second

Intro:        
e-|----------------------------------------------------------------------------
B-|----------------------------------------------------------------------------
G-|----------------------------------------------------------------------------
D-|-12-12-12-12-12-12-12-12-12-12-12-12-12--12--7-7-7-7-7-7-7-7-7-7-7-7-8-8-10-
A-|-10-10-10-10-10-10-10-10-10-10-10-10-10--10--5-5-5-5-5-5-5-5-5-5-5-5-6-6--8-
E-|----------------------------------------------------------------------------

Verse:        
e-|--------------------------------------------------------------------------
B-|--------------------------------------------------------------------------
G-|--------------------------------------------------------------------------
D-|-12-12-12-12------------------7-8-12-12-12-12------------------8-10-12-12-
A-|-10-10-10-10-8-10-10-10-10-10-5-6-10-10-10-10-8-10-10-10-10-10-6--8-10-10-
E-|-------------6--8--8--8--8--8-----------------6--8--8--8--8--8------------

e-|--------------------------------------------------------------------|
B-|--------------------------------------------------------------------|
G-|--------------------------------------------------------------------|
D-|-12-12------------------7-8-10-10-10-10-10-10-10-10-7-7-7-7-7-7-8-8-|
A-|-10-10-8-10-10-10-10-10-5-6--8--8--8--8--8--8--8--8-5-5-5-5-5-5-6-6-|
E-|-------6--8--8--8--8--8---------------------------------------------|

Chorus:        
e-|-----------------------------------------------------------------------------
B-|-----------------------------------------------------------------------------
G-|-----------------------------------------------------------------------------
D-|-12-12-12-12-12-12-12-8-8-8-8-8-8-8-8-------------------10-10-10-10-10-10-10-
A-|-10-10-10-10-10-10-10-6-6-6-6-6-6-6-6-8-8-8-8-8-8-8-8-8--8--8--8--8--8--8--8-
E-|--------------------------------------6-6-6-6-6-6-6-6-6----------------------

Bridge:        
e-|-----------------------------------------------------------------------------
B-|-----------------------------------------------------------------------------
G-|-----------------------------------------------------------------------------
D-|-12-12-12-12-12-12-12-12-----------------------------------------------------
A-|-10-10-10-10-10-10-10-10-8-8-8-8-8-8-8-8-10-10-10-10-10-10-10-10-10-10-10-10-
E-|-------------------------6-6-6-6-6-6-6-6--8--8--8--8--8--8--8--8--8--8--8--8-

e-|-----------------------------------------------------------------
B-|-----------------------------------------------------------------
G-|-----------------------------------------------------------------
D-|-7-7-8-8-12-12-12-12-12-12-12-12---------------------------------
A-|-5-5-6-6-10-10-10-10-10-10-10-10-8-8-8-8-8-8-8-8-3-3-3-3-3-3-3-3-
E-|---------------------------------6-6-6-6-6-6-6-6-1-1-1-1-1-1-1-1-

e-|-------------------|
B-|-------------------|
G-|-------------------|
D-|-8-8-8-8-8-8-10-10-|
A-|-6-6-6-6-6-6--8--8-|
E-|-------------------|

© Авторские права на тексты, песни, видео и другую представленную информацию принадлежат правообладателям. Аккорды, табы, gtp и тексты песен взяты из открытых источников.
Возрастная категория сайта: 18+
Тексты некоторых песен могут содержать нецензурные выражения, брань.
© 2020 guitar-chords.ru