Intro:        
------------------|-----------------|-----------------|------------------
------------------|-----------------|-----------------|------------------
----------9---7---|-----5-----5-----|---------9-------|-----5-----5------
------7-----------|---5-----5-------|-----7-------7---|---5-----5--------
----5---5---5---5-|-9-----9-----7-5-|---5---5---5---5-|-9-----9-----7-5--
------------------|-----------------|-----------------|------------------
                                     (-----           2x             ---)
-----------------|---------------|---------------------------------------
-----------------|---------------|---------------------------------------
---------9---7---|-----9---7-----|---------------------------------------
-----7-----------|-7-----------7-|---------------------------------------
---5---5---5---5-|---5---5---5---|---------------------------------------
-8---------------|---------------|---------------------------------------
the song goes on with some power chords......

© Авторские права на тексты, песни, видео и другую представленную информацию принадлежат правообладателям. Аккорды, табы, gtp и тексты песен взяты из открытых источников.
Возрастная категория сайта: 18+
Тексты некоторых песен могут содержать нецензурные выражения, брань.
© 2020 guitar-chords.ru