Tune down 1/2 step
/ - Bend
\ - release bend
* - harmonic

Intro Riff
E|--------------------------------------------------------------------------------------------------------------------------
B|--------------------------------------------------------------------------------------------------------------------------
G|--------------------------------------------------------------------------------------------------------------------------
D|-----5----5----5----5--5---5-----------------------------------------------------------------------------------------
A|----4----4----4----4---------------------------------------------------------------------------------------------------
E|--0----0----0----0----4---3-------------------------------------------------------------------------------------------
Verse
E|-------------------------------------------------------------------------------------------------------------------------
B|--/\-5-/\----7*--------------------------------------------------------------------------------------------------------
G|--6-----6----------------------------------------------------------------------------------------------------------------
D|------------5------------------------------------------------------------------------------------------------------------
A|-------------------------------------------------------------------------------------------------------------------------
E|-------------------------------------------------------------------------------------------------------------------------
Pre Chorus Guitar 1
E|-------------------------------------------------------------------------------------------------------------------------
B|-------------------------------------------------------------------------------------------------------------------------
G|------0-----------------------------------------------------------------------------------------------------------------
D|----5---5--5----------------------------------------------------------------------------------------------------------
A|--5-------4------------------------------------------------------------------------------------------------------------
E|------------------------------------------------------------------------------------------------------------------------
Pre Chorus Guitar 2
E|-------------------------------------------------------------------------------------------------------------------------
B|------------------------------------------------------------------------------------------------------------------------
G|-----------------------------------------------------------------------------------------------------------------------
D|--5-----5-7-5------5-7-9-7-5----5-7-5-------------------------------------------------------------------------
A|------------------------------------------------------------------------------------------------------------------------
E|------------------------------------------------------------------------------------------------------------------------
Chorus
E|------------------------------------------------------------------------------------------------------------------------
B|------------------------------------------------------------------------------------------------------------------------
G|-------------------------------------------------------------------------------------------------------------------------
D|--6----8---10----------------------------------------------------------------------------------------------------------
A|--6----8---10---------------------------------------------------------------------------------------------------------
E|--4----6----8----------------------------------------------------------------------------------------------------------
Well-that's the basic rythm part-all I've had time to figure out so far.


© Авторские права на тексты, песни, видео и другую представленную информацию принадлежат правообладателям. Аккорды, табы, gtp и тексты песен взяты из открытых источников.
Возрастная категория сайта: 18+
Тексты некоторых песен могут содержать нецензурные выражения, брань.
© 2020 guitar-chords.ru