Note: Once again, tune down ALL strings half-step

Intro
-----
(Rhythym Figure 1)
G#  G# G# X X   E E E E  E F#  F# F# 
        (mute
        strings)
(Lead Intro)
                 |---hold bend---|
-------4--|------------------------------------------|------------------------
-----4----|-7^(1)---------------7---(7)--------------|--------------4---------
-4h6------|-----------------------------6p4-6-6^(1)r-|-4------------4---------
----------|------------------------------------------|---6--------4-----------
----------|------------------------------------------|----------6-------------
----------|------------------------------------------|------------------------
                              
------------------------------------------
-6^(1/2)r----4-6-4------------------------
-6^(1/2)r----4-6-4------------------------
--------------------6-4-6-6-4h6-----------
------------------------------------------
------------------------------------------

Verses
------
Play Rhythym Figure 1

Pre-Chorus
----------
Chord Progression
 D  D  D D  F  F  F F F F  C#  C# C# C#  C# C# A  A  A A A A 
Pre-Chorus Filler (first time only - played under chord progression)
-----------------------|-----------------------------------------------------
-----------------------|-----------------------------------------------------
--9^(1)r----(9)---8-9--|--8h9p8p6h8p6h8--------------------------------------
-----------------------|-----------------------------------------------------
-----------------------|-----------------------------------------------------
-----------------------|-----------------------------------------------------

Pre-Chorus 1 Lead (first time through)
-----------------
                ~                                  ~
---------------------------------------------------------|------19----19\----
-----19---19^(1)--------19^(1)r-16-----------------------|-------------------
-16--------------------------------18^(1)-18^(1)r-16-----|-------------------
-----------------------------------------------------18--|---16----16--------
---------------------------------------------------------|-------------------
---------------------------------------------------------|-------------------
                                  ~~
--16-14--14^(1)r--11---------------------------------------------------------
---------------------14------------------------------------------------------
-------------------------14pre^(1)-------------------------------------------
-----------------------------------------------------------------------------
-----------------------------------------------------------------------------
-----------------------------------------------------------------------------

Chorus (After Pre-chorus second time through)
------
Chord Progression
 E  E  E E  F# F#  F# F# A  A A A  A A A  A  A A  A 
Note: When you reach the lyrics, "...sense too far gone from love that don't
      last forever," play Rhythym Figure 4 (along with the noted Fillers, too.)
Fill 2 (before Rhythym Fig. 4)
----------------------------------------------------------------------------
----------------------------------------------------------------------------
-7-6-----7-6-6-7---6-6--------------------------------------------------------------
-7-7-7-7-7-7-7-7---7-7----------------------------------------------------------------
-7-7-7-7-7-7-7-7---7-7----------------------------------------------------------------
-5-5-5-5-5-5-5-5---5-5---------------------------------------------------------------
Rhythym Figure 4 (chord progrssion)
F#  F# F#  F#  F# F#  F#  F# F#  F#  F# F#  A  A A  A  A A  A A A A A A A A 
Fill 3 (right after Rhythym Fig. 4)
---------------------
---------------------
---------------------
---------------------
---------------------
-6---\---------/-----
      \       /
       \ 1/2 /
     dive with bar

Outro Solo
----------
Note: chord progression under the solo is the same as used for the CHORUS
                                                            ~~~
------------------|------------16---------16---------------|------------------
---------------17-|--17-19^(1)----19^(1)-----19p17----17---|------------------
-16-----18--------|--------------------------------18------|-18--16-----------
------------------|----------------------------------------|--------19-18--19-
------------------|----------------------------------------|------------------
------------------|----------------------------------------|------------------
                                                                    ~
----------------------------------------------|------------------------------
----------------------------------------------|------------------------------
----------------------------------------------|-----------------16-16^(1)----
-(19)^(1)------18h19p18-16-------16--18-18-18-|-18\16-14---------------------
---------------------------19-19--------------|-----------14h16--------------
----------------------------------------------|------------------------------
                                  |-hld-|                |-hold-|
--------------19^(1)--19--------------------------------------|--------------
-14-14-17--17-------------20-20^(1)------17-------------------|--------------
-------------------------------------------19^(1)--19^(1)-----|---19-16------
--------------------------------------------------------------|--------------
--------------------------------------------------------------|--------------
--------------------------------------------------------------|--------------
                           ~                    
--------------------------------|--------------------------------------------
--------------------------------|--------------------------------------------
--------------------------------|--------------------------------------------
-19-17-19--19^(1)r-17-19-17-----|-16-------14-15-16---12---------------------
--------------------------------|--------------------------------------------
--------------------------------|--------------------------------------------

© Авторские права на тексты, песни, видео и другую представленную информацию принадлежат правообладателям. Аккорды, табы, gtp и тексты песен взяты из открытых источников.
Возрастная категория сайта: 18+
Тексты некоторых песен могут содержать нецензурные выражения, брань.
© 2020 guitar-chords.ru