Note: You must tune your guitar down one-half step on ALL strings

Intro
-----
Chord Progression
G  G  G G  G  G G  G  G G G G  G  G G 
E  E  E E  E  E E  E  E E E E  E  E E 
Note: Continue chord progression until Pre-Chorus
Fill 1 - to be played along with intro
-------|----------------------|----------------|-----------------------------
----3--|----------------------|----------------|-----------------------------
-------|--7h9--------7h9p7----|----------------|-----------------------------
-------|----------------------|------------5h7-|-5--7^(1/2)----5^(1/2)-------
-------|----------------------|----------------|------------------------7--7-
-------|----------------------|----------------|-----------------------------

-----------------------------------
-----------------------------------
-----------------------------------
-----------------------------------
-5h7p5--------5-------------------- End with beginning of main verse
-----------------------------------

Main Verses
-----------
Play intro Chord Progression

Pre-Chorus
----------
Chord Progression
F  F  F F F  F F F F 
E  E E E  E E E E E  E E 
F  F  F F F  F F F F       Note carefully the strumming patterns
E  E E E  E E E E E  E E 
F  F  F F F  F F F 
E  E 
G G G  G G  G G G G  G G G  G G G 
A  A A   (Break to Chorus)

Chorus
------
Chord Progression
E  E  E E  E E E E  E E E  E E  D  A  A  A 
Asus4 Asus4 A  A A A A A A  A A G 
Repeat Chord Progression one more time

Pre-Chorus (second time)
----------
Fill 2 - Underlying solo
------|-------------------------|-------8--10-10^(1)r8----------|------------
------|--------------8--10--10--|--/10-----------------10-8-----|---9--------
---4--|--5-4-5-7-7/9------------|----------------------------9--|------------
------|-------------------------|-------------------------------|------------
------|-------------------------|-------------------------------|------------
------|-------------------------|-------------------------------|------------

-------------------|---------------------------|-----------------------------
---10--10--10------|---------------------------|-----------------------------
---10--10--10----9-|-------12-14--12-----------|----12-12-14-14--------------
---10--10--10------|--/14----------------------|----------------14-12--------
-------------------|---------------------------|-----------------------14----
-------------------|---------------------------|-----------------------------

© Авторские права на тексты, песни, видео и другую представленную информацию принадлежат правообладателям. Аккорды, табы, gtp и тексты песен взяты из открытых источников.
Возрастная категория сайта: 18+
Тексты некоторых песен могут содержать нецензурные выражения, брань.
© 2020 guitar-chords.ru