* both guitars -  medium distortion

Look I'm standing naked before you
Don't you want more than my sex
I can scream as loud as your last one
But I can't claim innocence
Oh god could it be the weather
Oh god why am I here
If love isn't forever
And its NOT THE WEATHER
Hand me my leather
   I could just pretend that you love me
e-------------------------------------------|
B-------------------------------------------|
G-------------------------------------------|
D-------------------------------------------|
A--9-------8-------7-------------6----------|
E-------------------------------------------|
  The night would lose all sense of fear
e------------------------------------------------------|
B------------------------------------------------------|
G---------------------------------------6--------------|
D------------------------------------------8-----------|
A-----5-----------4--------3------------------9--7-----|
E------------------------------------------------------|
  But why do I need you to love me
e-------------------------------------|
B-------------------------------------|
G-------------------------------------|
D-------------------------------------|
A-----9--//13--12----------11---------|
E-------------------------------------|
 When you can't hold what I hold dear
e-------------------------------------|
B-------------------------------------|
G-------------------------------------|
D-------------------------------------|
A-----10--------9---------8-----------|
E-------------------------------------|
Oh god could it be the weather
Oh god why am I here
If love isn't forever
And its NOT THE WEATHER
Hand me my leather
  I almost ran over an angel
e-------------------------------------------------|
B-------------------------------------------------|
G-------------------------------------------------|
D-------------------------------------------------|
A--------------------------------7--5-------------|
E--------------------------------------7--3-------|
He had a nice big fat cigar
e-------------------------------------------|
B-------------------------------------------|
G----------------------------6--------------|
D-------------------------------8-----------|
A----------------------------------9--7-----|
E-------------------------------------------|
"IN A SENSE" he said "you're alone here
e-------------------------------------|
B-------------------------------------|
G-------------------------------------|
D-------------------------------------|
A-----9--//13--12----------11---------|
E-------------------------------------|
 So if you jump you best jump far"
e-------------------------------------|
B-------------------------------------|
G-------------------------------------|
D-------------------------------------|
A-----10--------9---------8-----------|
E-------------------------------------|
   Oh god could it be the weather
e------------------------------------------------------------|
B------------------------------------------------------------|
G------------------------------------------------------------|
D------------------------------------------------------------|
A--5-----------------------------5--5////////12////////5-----|
E------------------------------------------------------------|
Oh god why am I here
   If love isn't forever
e------------------------------------------------------------|
B------------------------------------------------------------|
G------------------------------------------------------------|
D------------------------------------------------------------|
A--5-----------------------------5--5////////12////////5-----|
E------------------------------------------------------------|
And its NOT THE WEATHER
   Oh  god could it be the weather
guitar 1-
e------17----------------------------------------|
B--15------------15----------------15--17--18----|
G------------------------------------------------|
D------------------------------------------------|
A------------------------------------------------|
E------------------------------------------------|
guitar 2-
e------------------------------------------------|
B------------------------------------------------|
G------------------------------------------------|
D------7-----------------------------------------|
A--5-------------5-----------------5---7---8-----|
E------------------------------------------------|
  Oh god its all very clear
e-----------------------15--15--15-15h17-----------|
B---------------------15--15--15---------15--------|
G--------------------------------------------------|
D--------------------------------------------------|
A--------------------------------------------------|
E--------------------------------------------------|
   If love isn't forever
e------------------------------------------------------------|
B------------------------------------------------------------|
G------------------------------------------------------------|
D------------------------------------------------------------|
A--5-----------------------------5--5////////12////////5-----|
E------------------------------------------------------------|
And its NOT THE WEATHER
Hand me my leather

© Авторские права на тексты, песни, видео и другую представленную информацию принадлежат правообладателям. Аккорды, табы, gtp и тексты песен взяты из открытых источников.
Возрастная категория сайта: 18+
Тексты некоторых песен могут содержать нецензурные выражения, брань.
© 2020 guitar-chords.ru