Standard Tuning
/ Slide Up
\ Slide Down
~ Vibrato
h hammer on
p pull off
b bend
Lead Guitar:
|------------------------------------------------------|
|------------------------------------------------------|
|------------------------------------------------------|
|------2-4-5------------------2--4--5/7--5--4h5p4--0---|
|--2-5-------------------------------------------------|
|------------------------------------------------------|

|------------------------------------------------------|
|------------------------------------------------------|
|------------------------------------------------------|
|------2-4-5--------------2--4--5/7--5--4h5p4--0-------|
|--2-5-----------------------------------------------2-|
|------------------------------------------------------|

|------------------------------------------------------|
|------------------------------------------------------|
|------------------------------------------------------|
|------2-4-5------------------2--4--5/7--5--4h5p4--0---|
|--2-5-------------------------------------------------|
|------------------------------------------------------|

|------------------------------------------------------|
|------------------------------------------------------|
|------------------------------------------------------|
|------2-4-5--------------2--4--5/7--5--4h5p4--0-------|
|--2-5-----------------------------------------------2-|
|------------------------------------------------------|
And so on. There are some harmonics on almost every note
that's held for longer than a couple of beats in the song, but
I'm not sure which fret they're played on. There is also a
part where the lead guitar jumps up to a high pitched wale.
This may also be harmonics, but it can also be played
like so:
|---13------12-------------------------------------|
|------------------------------------------------------|
|------------------------------------------------------|
|------------------------------------------------------|
|------------------------------------------------------|
|------------------------------------------------------|

© Авторские права на тексты, песни, видео и другую представленную информацию принадлежат правообладателям. Аккорды, табы, gtp и тексты песен взяты из открытых источников.
Возрастная категория сайта: 18+
Тексты некоторых песен могут содержать нецензурные выражения, брань.
© 2020 guitar-chords.ru