Eternity Part III

e|--------------------------------|
b|--------------------------------|
g|--------------------------------|
d|----------0------------------0--|
a|------4------------------4------|
e|---7------------------3---------|

e||--------------------------------||--------------------------------||
b||--------------------------------||--------------------------------||
g||--------------------------------||--------------------------------||
d||-----------0--------0-----0-----||-----------0--------0-----0-----||
a||-----4-----------4-----------4--||-----4-----------4-----------4--||
e||--7-----7-----7--------7--------||--3-----3-----3--------3--------||

e||--------------------------------||--------------------------------||
b||--------------------------------||--------------------------------||
g||--------------------------------||--------------------------------||
d||-----------0--------0-----0-----||-----------0--------0-----0-----||
a||-----4-----------4-----------4--||-----4-----------4-----------4--||
e||--0-----0-----0--------0--------||--2-----2-----2--------2--------||

© Авторские права на тексты, песни, видео и другую представленную информацию принадлежат правообладателям. Аккорды, табы, gtp и тексты песен взяты из открытых источников.
Возрастная категория сайта: 18+
Тексты некоторых песен могут содержать нецензурные выражения, брань.
© 2020 guitar-chords.ru