Piano arranged for guitar... You can play it with capo also but I'll tab the
simplest form...
stroke fast but don't play a chord... let ring... and play it slowwwly!!
|-----0---------0------3-------1-------0h1------1---1----------------------|
|----1---------1---------1-------1----------3---3---3------3---3--3--1--0--|
|---2---------2------------2-------2--------2---2---2------0---0-----------|
|--2---------2---------------------------------------------0---0-----------|
|-0---------0----------------------------------------------2---2-----------|
|----------------------------------------------------------3---3-----------|
repeat this with lyrics and then
distortion
|----------------------------------------------------------------|
|----------------------------------------------------------------|
|--2--2--2---2-------------------2--2--2---2---------------------|
|--2--2--2---3-------------------2--2--2---3---------------------|
|--0--0--0---3--------3----2-3---0--0--0---3-----3---2-3---------|
|------------1-----1-----1-----------------1---1---1-------------|

© Авторские права на тексты, песни, видео и другую представленную информацию принадлежат правообладателям. Аккорды, табы, gtp и тексты песен взяты из открытых источников.
Возрастная категория сайта: 18+
Тексты некоторых песен могут содержать нецензурные выражения, брань.
© 2020 guitar-chords.ru