(bass)

This is the main bassline:
G|----------------|---------------|
D|-------5-3-2----|---------2-----|
A|--3-------------|------5----5---|
E|----------------|--3------------|

and the chorus is something like this
G|--------------|--------------|
D|--------------|--------------|
A|--3----5----|--3----2----|
E|--------------|--------------|

That's pretty much it, I didnt have time to figure out the interlude

Другие песни этого исполнителя/группы


© Авторские права на тексты, песни, видео и другую представленную информацию принадлежат правообладателям. Аккорды, табы, gtp и тексты песен взяты из открытых источников.
Возрастная категория сайта: 18+
Тексты некоторых песен могут содержать нецензурные выражения, брань.
© 2020 guitar-chords.ru