#табулатура

    
Jack Names the Planets

BASS TAB

This one is also taken from "Trailer".
The two dashes inbetween the fours in the
chorus indicates a space.

VERSE:        
G-----------------------
D-----------------------
A-7-7-------7-7---------
E-----7-7-7-----5-5-5-5-

CHORUS:        
G----------------------
D----------------------
A---4--4-4-4---6--6-6-6
E-4----------6---------
repeat this and then add this bit on the end
G---------------
D---------------
A-7---9---------
E---7---9--9-9-9

© Авторские права на тексты, песни, видео и другую представленную информацию принадлежат правообладателям. Аккорды, табы, gtp и тексты песен взяты из открытых источников.
Возрастная категория сайта: 18+
Тексты некоторых песен могут содержать нецензурные выражения, брань.
© 2020 guitar-chords.ru