#табулатура

    
Kung Fu

BTAB

VERSE:        
-------------------------------------
-------------------------------------
-7-7--------7-7----------------------
------7-7-7-------7-7-7--5-5-5-5--7-7

CHORUS:        
------------------------------------------
-------------------------------------------
-5-5---------------------------------------
------5-5-5-7-7-7-5-5-5-5-3-3-3-2-2-2-0-0--

© Авторские права на тексты, песни, видео и другую представленную информацию принадлежат правообладателям. Аккорды, табы, gtp и тексты песен взяты из открытых источников.
Возрастная категория сайта: 18+
Тексты некоторых песен могут содержать нецензурные выражения, брань.
© 2020 guitar-chords.ru