Honest To A Fault

E---------------------------------------------------------------
B---------------------------------------------------------------
G------7-7-7----------------------------------------------------
D-4444-7-7-7----------------------------------------------------
A-4444-5-5-5----------------------------------------------------
E-2222----------------------------------------------------------

VERSE:        
E---------------------------------------------------------------
B---------------------------------------------------------------
G-------------------7-7-7---------------------------------------
D-7-7-7-9-9-9-4-4-4-7-7-7---------------------------------------
A-7-7-7-9-9-9-4-4-4-5-5-5---------------------------------------
E-5-5-5-7-7-7-2-2-2---------------------------------------------

INTERLUDE:    
E---------------------------------------------------------------
B--10------10------10-------10----------------------------------
G--11------11------11-------11----------------------------------
D-9---11-7----11-12----12-11------------------------------------
A---------------------------------------------------------------
E---------------------------------------------------------------

© Авторские права на тексты, песни, видео и другую представленную информацию принадлежат правообладателям. Аккорды, табы, gtp и тексты песен взяты из открытых источников.
Возрастная категория сайта: 18+
Тексты некоторых песен могут содержать нецензурные выражения, брань.
© 2020 guitar-chords.ru