Intro
  Slow Rock Q=76
  Dm                         F 
 4/4
  Gtr I
  Q     E  S S S S E E S S   Q   E S S S  S E E E
  |     |  | | | | | | | |   |   | | | |  | | | |
  /     /  / / / / / / / /   /   / / / /  / / / /
  Gtr II
  S E. +H.                   E E E E   Q.       E
|--------------------------|----------------------|
|-1s3--(3)-----------------|--------------------1-|
|-2------------------------|---2-5-5--------------|
|-0------------------------|-3--------------------|
|--------------------------|----------------------|
|--------------------------|----------------------|
|
| Gtr III
| H            Q     E E     E E E E   H
|--------------------------|----------------------|
|--------------------------|----------------------|
|----------------------2---|-----5-5--------------|
|--------------------------|-2-3-3-3--------------|
|--------------------------|----------------------|
|--------------------------|----------------------|
  Dm                          C 
  Q     E  S S  S S E E S S   Q    E S S S S E E E
  |     |  | |  | | | | | |   |    | | | | | | | |
  /     /  / /  / / / / / /   /    / / / / / / / /
                ~~                       ~
  S E. +Q       H             Q.     E   H
|---------------------------|----------------------|
|-1s3--(3)-----/3-----------|--------6---5---------|
|-2-------------------------|----------------------|
|-0-------------------------|-3--------------------|
|---------------------------|----------------------|
|---------------------------|----------------------|
|
| H             Q     E E     E  E E E   H
|---------------------------|----------------------|
|---------------------------|----------------------|
|-----------------------2---|------5-5-------------|
|---------------------------|-2--3-3-3-------------|
|---------------------------|----------------------|
|---------------------------|----------------------|
  Dm                              F 
   Q  E S S   S  S E  E     S S    Q      E   S S  S  S  E  E E
   |  | | |   |  | |  |     | |    |      |   | |  |  |  |  | |
   /  / / /   /  / /  /     / /    /      /   / /  /  /  /  / /
                                           ~~
   H         +Q       S  S  E      E  E  +E   E    S  S  Q.
|-------------------------------|-------------------------------|
|-------------------------------|-------------------------------|
|-14--------(14)-----14-14-10---|-12-14-(14)--------------------|
|--x------------------x--x--x---|--x--x------12---14-15-14------|
|-12--------(12)-----12-12--8---|-10-12-(12)--------------------|
|-------------------------------|-------------------------------|
|
|     ~~~
|  Q  Q      +H                    Q      Q        H
|-----8------(8)----------------|--------13-------12------------|
|-10----------------------------|-------------------------------|
|-------------------------------|-10----------------------------|
|-------------------------------|-------------------------------|
|-------------------------------|-------------------------------|
|-------------------------------|-------------------------------|
  Dm                              C 
   Q  E S S   S  S E  E     S S     Q       E   S  S  S    S E E E
   |  | | |   |  | |  |     | |     |       |   |  |  |    | | | |
   /  / / /   /  / /  /     / /     /       /   /  /  /    / / / /
 
   H         +Q       S  S  E       E   E  +E   S  S  H
|-------------------------------|----------------------------------|
|-------------------------------|----------------------------------|
|-14--------(14)-----14-14-10---|--12--14-(14)---------------------|
|--x------------------x--x--x---|---x---x------15-14-14b15r========|
|-12--------(12)-----12-12--8---|--10--12-(12)---------------------|
|-------------------------------|----------------------------------|
|
|     ~
|  Q  Q      +H                     W
|-----8------(8)----------------|----------------------------------|
|-10----------------------------|----------------------------------|
|-------------------------------|-(10)-----------------------------|
|-------------------------------|----------------------------------|
|-------------------------------|----------------------------------|
|-------------------------------|----------------------------------|

 Verse 1
  F                       Dm 
   Q  E S S S S E E S S   Q  E S S S S E E E
   |  | | | | | | | | |   |  | | | | | | | |
   /  / / / / / / / / /   /  / / / / / / / /
   
   ~~
   W                      W
|-----------------------|--------------------|
|-----------------------|--------------------|
|-----------------------|--------------------|
|-15--------------------|--------------------|
|-----------------------|--------------------|
|-----------------------|--------------------|
  Bb                     C 
  Q  E S S S S E E S S   Q  E S S S S E E E
  |  | | | | | | | | |   |  | | | | | | | |
  /  / / / / / / / / /   /  / / / / / / / /
  W                      W
|----------------------|----------------------|
|----------------------|----------------------|
|----------------------|----------------------|
|----------------------|----------------------|
|----------------------|----------------------|
|----------------------|----------------------|
  F                      Dm 
  Q  E S S S S E E S S   Q  E S S S S E E E
  |  | | | | | | | | |   |  | | | | | | | |
  /  / / / / / / / / /   /  / / / / / / / /
  W                      W
|----------------------|--------------------|
|----------------------|--------------------|
|----------------------|--------------------|
|----------------------|--------------------|
|----------------------|--------------------|
|----------------------|--------------------|
  Bb                     C 
  Q  E S S S S E E S S   Q  E S S S S E E E
  |  | | | | | | | | |   |  | | | | | | | |
  /  / / / / / / / / /   /  / / / / / / / /
  W                      W
|----------------------|----------------------|
|----------------------|----------------------|
|----------------------|----------------------|
|----------------------|----------------------|
|----------------------|----------------------|
|----------------------|----------------------|

 Pre-Chorus
  Bb                    Dm                    Bb                    C 
  E S S E S E S E +Q    E S S E S E S E +Q    E S S E S E S E +Q    W
  | | | | | | | |  |    | | | | | | | |  |    | | | | | | | |  |    |
  / / / / / / / /  /    / / / / / / / /  /    / / / / / / / /  /    /
  Gtrs II, III
                                                                    ~
  E S S E S E S E  Q    E S S E S E S E  Q    E S S E S E S E  Q    W
|---------------------|---1-1---1-1-1-1-----|---------------------|------|
|---------------------|---3-3---3-3-3-3-----|---------------------|-1----|
|---3-3---3-3-3-3-----|---2-2---2-2-2-2-----|---3-3---3-3-3-3-----|-0----|
|---3-3---3-3-3-3-----|---0-0---0-0-0-0-----|---3-3---3-3-3-3-----|-2----|
|---1-1---1-1-1-1-----|---------------------|---1-1---1-1-1-1-----|-3----|
|---------------------|---------------------|---------------------|------|

 Chorus
  Dm                     Bb          F          C 
    Q         E    S   S E E S S E   Q   Q      E E Q
    |         |    |   | | | | | |   |   |      | | |
    /         /    /   / / / / / /   /   /      / / /
  Gtr II
    E     E   Q          E E Q       E E E  S S E E E     S S
|----------------------------------|--------------------------|
|---3------------------------------|--------------------------|
|---2-----2------------------------|--------------------------|
|---0--------------------3-3-3-----|---3----------5-------3-5-|
|-------------5\-------------------|-3---3--3-3-3---3---------|
|----------------------------------|--------------------------|
|
| Gtr III
|   S  E.    +E   +E     H           Q   Q      Q   S  E.
|-----17----(17)-(17)\-------------|-----5\------------8\-----|
|-/18------------------------------|-----6\------------8\-----|
|----------------------------------|-----5\------------9\-----|
|----------------------------------|-----3\-----------10\-----|
|----------------------------------|--------------------------|
|----------------------------------|--------------------------|
  Dm                     Bb          F       C 
    Q         E    S   S E E S S E   Q   Q   E E Q
    |         |    |   | | | | | |   |   |   | | |
    /         /    /   / / / / / /   /   /   / / /
    E     E   Q          E E Q       E E Q   E E E     S S
|----------------------------------|------------------------|
|----------------------------------|------------------------|
|----------------------------------|------------------------|
|---------7--------------3-3-3-----|---3-------5-------3-5--|
|---5---------5\-------------------|-3---3---3---3----------|
|----------------------------------|------------------------|
|
|   S  E.    +E   +E     H           Q   Q   Q   S  E.
|-----17----(17)-(17)\-------------|-----5\---------8\------|
|-/18------------------------------|-----6\---------8\------|
|----------------------------------|-----5\---------9\------|
|----------------------------------|-----3\--------10\------|
|----------------------------------|------------------------|
|----------------------------------|------------------------|
  Dm          Bb           F        C 
  Q    E  S S E E S  S E   Q    Q   E E Q
  |    |  | | | | |  | |   |    |   | | |
  /    /  / / / / /  / /   /    /   / / /
  E E  Q      E E Q        E E  Q   E E Q
|------------------------|--------------------|
|------------------------|--------------------|
|---2--------------------|--------------------|
|-0----0--------3--------|---3--------5-------|
|-------------1---1------|-3----3---3---3-----|
|------------------------|--------------------|
|
| Q    Q      Q   Q        Q    Q   Q   S  E.
|-----10\---------6\-----|-----------------8\-|
|-----10\---------6\-----|-----10\---------8\-|
|-----10\---------7\-----|-----10\---------9\-|
|-----12\---------8\-----|-----10\--------10\-|
|------------------------|------8\------------|
|------------------------|--------------------|
  Gm                    Bb           C 
  E E E S S  E  E E E    W           Q  E E S S E E S S
  | | | | |  |  | | |    |           |  | | | | | | | |
  / / / / /  /  / / /    /           /  / / / / / / / /
  E E E E    E  E E E    W           W
|---------------------|------------|---------------------|
|---------------------|------------|---------------------|
|---------------------|------------|---------------------|
|-5-5-5-5----5--5-5-5s|==8---------|---------------------|
|-5-5-5-5----5--5-5-5s|==8---------|---------------------|
|-3-3-3-3----3--3-3-3s|==6---------|---------------------|
|
| E Q   E   +E  Q   E   +W           W
|-------------------1-|-(1)--------|---------------------|
|---------------3-----|------------|---------------------|
|-0-2---3---(3)-------|------------|---------------------|
|---------------------|------------|---------------------|
|---------------------|------------|---------------------|
|---------------------|------------|---------------------|

   Verse 2
    F                      Dm 
    Q  E S S S S E E S S   Q  E S S S S E E E
    |  | | | | | | | | |   |  | | | | | | | |
    /  / / / / / / / / /   /  / / / / / / / /
    W                      W
||-----------------------|--------------------|
||o----------------------|--------------------|
||-----------------------|--------------------|
||-----------------------|--------------------|
||o----------------------|--------------------|
||-----------------------|--------------------|
  Bb                     C 
  Q  E S S S S E E S S   Q  E S S S S E E E
  |  | | | | | | | | |   |  | | | | | | | |
  /  / / / / / / / / /   /  / / / / / / / /
  W                      W
|----------------------|----------------------||
|----------------------|---------------------o||
|----------------------|----------------------||
|----------------------|----------------------||
|----------------------|---------------------o||
|----------------------|----------------------||

 Pre-Chorus
  Bb                    Dm                    Bb                    C 
  E S S E S E S E +Q    E S S E S E S E +Q    E S S E S E S E +Q    W
  | | | | | | | |  |    | | | | | | | |  |    | | | | | | | |  |    |
  / / / / / / / /  /    / / / / / / / /  /    / / / / / / / /  /    /
  Gtrs II, III
                                                                    ~
  E S S E S E S E  Q    E S S E S E S E  Q    E S S E S E S E  Q    W
|---------------------|---1-1---1-1-1-1-----|---------------------|------|
|---------------------|---3-3---3-3-3-3-----|---------------------|-1----|
|---3-3---3-3-3-3-----|---2-2---2-2-2-2-----|---3-3---3-3-3-3-----|-0----|
|---3-3---3-3-3-3-----|---0-0---0-0-0-0-----|---3-3---3-3-3-3-----|-2----|
|---1-1---1-1-1-1-----|---------------------|---1-1---1-1-1-1-----|-3----|
|---------------------|---------------------|---------------------|------|

 Chorus 2
  Dm                     Bb          F          C 
    Q         E    S   S E E S S E   Q   Q      E E Q
    |         |    |   | | | | | |   |   |      | | |
    /         /    /   / / / / / /   /   /      / / /
    E     E   Q          E E Q       E E E  S S E E E     S S
|----------------------------------|--------------------------|
|---3------------------------------|--------------------------|
|---2-----2------------------------|--------------------------|
|---0--------------------3-3-3-----|---3----------5-------3-5-|
|-------------5\-------------------|-3---3--3-3-3---3---------|
|----------------------------------|--------------------------|
|
| Gtr III
|   S  E.    +E   +E     H           Q   Q      Q   S  E.
|-----17----(17)-(17)\-------------|-----5\------------8\-----|
|-/18------------------------------|-----6\------------8\-----|
|----------------------------------|-----5\------------9\-----|
|----------------------------------|-----3\-----------10\-----|
|----------------------------------|--------------------------|
|----------------------------------|--------------------------|
  Dm                     Bb          F       C 
    Q         E    S   S E E S S E   Q   Q   E E Q
    |         |    |   | | | | | |   |   |   | | |
    /         /    /   / / / / / /   /   /   / / /
    E     E   Q          E E Q       E E Q   E E E     S S
|----------------------------------|------------------------|
|----------------------------------|------------------------|
|----------------------------------|------------------------|
|---------7--------------3-3-3-----|---3-------5-------3-5--|
|---5---------5\-------------------|-3---3---3---3----------|
|----------------------------------|------------------------|
|
|   S  E.    +E   +E     H           Q   Q   Q   S  E.
|-----17----(17)-(17)\-------------|-----5\---------8\------|
|-/18------------------------------|-----6\---------8\------|
|----------------------------------|-----5\---------9\------|
|----------------------------------|-----3\--------10\------|
|----------------------------------|------------------------|
|----------------------------------|------------------------|
  Dm          Bb           F        C           Gm                    Bb 
  Q    E  S S E E S  S E   Q    Q   E E Q       E E E S S  E  E E E    W
  |    |  | | | | |  | |   |    |   | | |       | | | | |  |  | | |    |
  /    /  / / / / /  / /   /    /   / / /       / / / / /  /  / / /    /
  E E  Q      E E Q        E E  Q   E E Q       E E E E    E  E E E    W
|------------------------|--------------------|---------------------|--------|
|------------------------|--------------------|---------------------|--------|
|---2--------------------|--------------------|---------------------|--------|
|-0----0--------3--------|---3--------5-------|-5-5-5-5----5--5-5-5s|==8-----|
|-------------1---1------|-3----3---3---3-----|-5-5-5-5----5--5-5-5s|==8-----|
|------------------------|--------------------|-3-3-3-3----3--3-3-3s|==6-----|
|
| Q    Q      Q   Q        Q    Q   Q   S  E.   E Q   E   +E  Q   E   +W
|-----10\---------6\-----|-----------------8\-|-------------------1-|-(1)----|
|-----10\---------6\-----|-----10\---------8\-|---------------3-----|--------|
|-----10\---------7\-----|-----10\---------9\-|-0-2---3---(3)-------|--------|
|-----12\---------8\-----|-----10\--------10\-|---------------------|--------|
|------------------------|------8\------------|---------------------|--------|
|------------------------|--------------------|---------------------|--------|

 Bridge
  F                   Dm 
  E E E S S E E E E   E E E S S E E E E
  | | | | | | | | |   | | | | | | | | |
  / / / / / / / / /   / / / / / / / / /
  H         Q   Q     H         Q   Q
|-----------6---5---|-----------6---5---|
|-6-----------------|-6-----------------|
|-------------------|-------------------|
|-------------------|-------------------|
|-------------------|-------------------|
|-------------------|-------------------|
  Bb                  C 
  E E E S S E E E E   E E E S S E E E E
  | | | | | | | | |   | | | | | | | | |
  / / / / / / / / /   / / / / / / / / /
  H         Q   Q     H         H
|-----------6---5---|-6---------5-------|
|-6-----------------|-------------------|
|-------------------|-------------------|
|-------------------|-------------------|
|-------------------|-------------------|
|-------------------|-------------------|

 Verse 3
  F                       Dm                   Bb                     C 
   Q  E S S S S E E S S   Q  E S S S S E E E   Q  E S S S S E E S S   W
   |  | | | | | | | | |   |  | | | | | | | |   |  | | | | | | | | |   |
   /  / / / / / / / / /   /  / / / / / / / /   /  / / / / / / / / /   /
   
   ~~
   W                      W                    W                      W
|-----------------------|--------------------|----------------------|------|
|-----------------------|--------------------|----------------------|------|
|-----------------------|--------------------|----------------------|------|
|-15--------------------|--------------------|----------------------|------|
|-----------------------|--------------------|----------------------|------|
|-----------------------|--------------------|----------------------|------|

 Pre-Chorus
  Bb                    Dm                    Bb                    C 
  E S S E S E S E +Q    E S S E S E S E +Q    E S S E S E S E +Q    W
  | | | | | | | |  |    | | | | | | | |  |    | | | | | | | |  |    |
  / / / / / / / /  /    / / / / / / / /  /    / / / / / / / /  /    /
  W                     W                     W                     W
|---------------------|---------------------|---------------------|------|
|---------------------|---------------------|---------------------|------|
|---------------------|---------------------|---------------------|------|
|---------------------|---------------------|---------------------|------|
|---------------------|---------------------|---------------------|------|
|---------------------|---------------------|---------------------|------|

 Chorus 3
  Dm                     Bb          F          C 
    Q         E    S   S E E S S E   Q   Q      E E Q
    |         |    |   | | | | | |   |   |      | | |
    /         /    /   / / / / / /   /   /      / / /
  Gtr II
    E     E   Q          E E Q       E E E  S S E E E     S S
|----------------------------------|--------------------------|
|---3------------------------------|--------------------------|
|---2-----2------------------------|--------------------------|
|---0--------------------3-3-3-----|---3----------5-------3-5-|
|-------------5\-------------------|-3---3--3-3-3---3---------|
|----------------------------------|--------------------------|
|
| Gtr IV
|   S  E.    +E   +E     H           Q   Q      Q   S  E.
|-----17----(17)-(17)\-------------|-----5\------------8\-----|
|-/18------------------------------|-----6\------------8\-----|
|----------------------------------|-----5\------------9\-----|
|----------------------------------|-----3\-----------10\-----|
|----------------------------------|--------------------------|
|----------------------------------|--------------------------|
  Dm                     Bb          F       C 
    Q         E    S   S E E S S E   Q   Q   E E Q
    |         |    |   | | | | | |   |   |   | | |
    /         /    /   / / / / / /   /   /   / / /
    E     E   Q          E E Q       E E Q   E E E     S S
|----------------------------------|------------------------|
|----------------------------------|------------------------|
|----------------------------------|------------------------|
|---------7--------------3-3-3-----|---3-------5-------3-5--|
|---5---------5\-------------------|-3---3---3---3----------|
|----------------------------------|------------------------|
|
|   S  E.    +E   +E     H           Q   Q   Q   S  E.
|-----17----(17)-(17)\-------------|-----5\---------8\------|
|-/18------------------------------|-----6\---------8\------|
|----------------------------------|-----5\---------9\------|
|----------------------------------|-----3\--------10\------|
|----------------------------------|------------------------|
|----------------------------------|------------------------|
  Dm          Bb           F        C           Gm                    Bb 
  Q    E  S S E E S  S E   Q    Q   E E Q       E E E S S  E  E E E    W
  |    |  | | | | |  | |   |    |   | | |       | | | | |  |  | | |    |
  /    /  / / / / /  / /   /    /   / / /       / / / / /  /  / / /    /
  E E  Q      E E Q        E E  Q   E E Q       E E E E    E  E E E    W
|------------------------|--------------------|---------------------|--------|
|------------------------|--------------------|---------------------|--------|
|---2--------------------|--------------------|---------------------|--------|
|-0----0--------3--------|---3--------5-------|-5-5-5-5----5--5-5-5s|==8-----|
|-------------1---1------|-3----3---3---3-----|-5-5-5-5----5--5-5-5s|==8-----|
|------------------------|--------------------|-3-3-3-3----3--3-3-3s|==6-----|
|
| Q    Q      Q   Q        Q    Q   Q   S  E.   E Q   E   +E  Q   E   +W
|-----10\---------6\-----|-----------------8\-|-------------------1-|-(1)----|
|-----10\---------6\-----|-----10\---------8\-|---------------3-----|--------|
|-----10\---------7\-----|-----10\---------9\-|-0-2---3---(3)-------|--------|
|-----12\---------8\-----|-----10\--------10\-|---------------------|--------|
|------------------------|------8\------------|---------------------|--------|
|------------------------|--------------------|---------------------|--------|
  Dm                     Bb          F          C 
    Q         E    S   S E E S S E   Q   Q      E E Q
    |         |    |   | | | | | |   |   |      | | |
    /         /    /   / / / / / /   /   /      / / /
  Gtrs II, III
    E     E   Q          E E Q       E E E  S S E E E     S S
|----------------------------------|--------------------------|
|---3------------------------------|--------------------------|
|---2-----2------------------------|--------------------------|
|---0--------------------3-3-3-----|---3----------5-------3-5-|
|-------------5\-------------------|-3---3--3-3-3---3---------|
|----------------------------------|--------------------------|
|
|   S  E.    +E   +E     H           Q   Q      Q   S  E.
|-----17----(17)-(17)\-------------|-----5\------------8\-----|
|-/18------------------------------|-----6\------------8\-----|
|----------------------------------|-----5\------------9\-----|
|----------------------------------|-----3\-----------10\-----|
|----------------------------------|--------------------------|
|----------------------------------|--------------------------|
  Dm                     Bb          F       C 
    Q         E    S   S E E S S E   Q   Q   E E Q
    |         |    |   | | | | | |   |   |   | | |
    /         /    /   / / / / / /   /   /   / / /
    E     E   Q          E E Q       E E Q   E E E     S S
|----------------------------------|------------------------|
|----------------------------------|------------------------|
|----------------------------------|------------------------|
|---------7--------------3-3-3-----|---3-------5-------3-5--|
|---5---------5\-------------------|-3---3---3---3----------|
|----------------------------------|------------------------|
|
|   S  E.    +E   +E     H           Q   Q   Q   S  E.
|-----17----(17)-(17)\-------------|-----5\---------8\------|
|-/18------------------------------|-----6\---------8\------|
|----------------------------------|-----5\---------9\------|
|----------------------------------|-----3\--------10\------|
|----------------------------------|------------------------|
|----------------------------------|------------------------|
  Dm          Bb           F        C           Gm                    Bb 
  Q    E  S S E E S  S E   Q    Q   E E Q       E E E S S  E  E E E    W
  |    |  | | | | |  | |   |    |   | | |       | | | | |  |  | | |    |
  /    /  / / / / /  / /   /    /   / / /       / / / / /  /  / / /    /
  E E  Q      E E Q        E E  Q   E E Q       E E E E    E  E E E    W
|------------------------|--------------------|---------------------|--------*|
|------------------------|--------------------|---------------------|--------*|
|---2--------------------|--------------------|---------------------|--------*|
|-0----0--------3--------|---3--------5-------|-5-5-5-5----5--5-5-5s|==8-----*|
|-------------1---1------|-3----3---3---3-----|-5-5-5-5----5--5-5-5s|==8-----*|
|------------------------|--------------------|-3-3-3-3----3--3-3-3s|==6-----*|
|
| Q    Q      Q   Q        Q    Q   Q   S  E.   E Q   E   +E  Q   E   +W
|-----10\---------6\-----|-----------------8\-|-------------------1-|-(1)----*|
|-----10\---------6\-----|-----10\---------8\-|---------------3-----|--------*|
|-----10\---------7\-----|-----10\---------9\-|-0-2---3---(3)-------|--------*|
|-----12\---------8\-----|-----10\--------10\-|---------------------|--------*|
|------------------------|------8\------------|---------------------|--------*|
|------------------------|--------------------|---------------------|--------*|


© Авторские права на тексты, песни, видео и другую представленную информацию принадлежат правообладателям. Аккорды, табы, gtp и тексты песен взяты из открытых источников.
Возрастная категория сайта: 18+
Тексты некоторых песен могут содержать нецензурные выражения, брань.
© 2020 guitar-chords.ru