Brandenburg Concerto No.5 in D Major

|-------------------------------------------------|-------------------------
|-------------------------------------------------|-------------------------
|-------------------19-19-18-19-18-16-------------|-------------------19-19-
|-------16-16-19-19-------------------19-17-16----|-------16-16-19-19-------
|-17-17----------------------------------------19-|-17-17-------------------
|-------------------------------------------------|-------------------------

-------------|-------------------------19-19-17-17-------------|------------
-17------17--|-19-19-17-17-20-20-19-19-------------------------|------------
-------------|-------------------------------------18-18-19-19-|------------
-----19------|-------------------------------------------------|-17-17-16-16
-------------|-------------------------------------------------|------------
-------------|-------------------------------------------------|------------

-------------------------------------|--------------------------------------
-------------------------------------|--------------------------------------
-16-16-------------------------------|--------------------------------------
-------19-19-------------------17-17-|-16----16----------------------16-17--
-------------16-16-17-17-------------|----19----17-19-19-------17-19--------
-------------------------17-17-------|-------------------17-17--------------

--------------|-------------------------------------19-19-17-17-|
--------------|-------------17-17-------20-20-19-19-------------|
----16-18-----|-19-19-18-18-------19-19-------------------------|
-19-------19--|-------------------------------------------------|
--------------|-------------------------------------------------|
--------------|-------------------------------------------------|

|---------------------------------------------|-----------------------------
|20p19-17----17----------------------17-------|-----------------------------
|---------19-------16-17----16-19-18----------|-----------------------------
|---------------19-------19-------------19-17-|-16-------17-16-19-----------
|---------------------------------------------|----17-19----------17-16-----
|---------------------------------------------|-------------------------19--

-----------------|--------------|
-----------------|--------------|
-----------------|--------------|
-17-16-----------|--------------|
-------19-19--17-|-17-----------|
-----------------|--------------|

© Авторские права на тексты, песни, видео и другую представленную информацию принадлежат правообладателям. Аккорды, табы, gtp и тексты песен взяты из открытых источников.
Возрастная категория сайта: 18+
Тексты некоторых песен могут содержать нецензурные выражения, брань.
© 2020 guitar-chords.ru