I just finished TABing the Bach piece below, and since this is my
first attempt at TABing, I'm looking for some input (constructive
criticism, improvements to the piece, corrections, etc).
The piece is in 3/4 time, but it feels more like a 3/8 time.
Almost the entire thing is in triplets like the diagram below. All of
the notes within each triplet are two spaces apart, and there are four
spaces between triplets, and three triplets per bar.
     _____      _____      _____       _____      _____      _____
    |  |  |    |  |  |    |  |  |     |  |  |    |  |  |    |  |  |
e|--|--|--|----|--|--|----|--0--|--|--|--3--2----3--|--|----|--|--|--|
B|--|--|--|----0--3--1----1-----3--|--3----------0--3--0----|--|--0--|
G|--|--0--2----0----------0--------|--0---------------------0--2-----|
D|--|----------0----------2--------|-------------2----------2--------|
A|--|------------------------------|--2------------------------------|
E|--3------------------------------|---------------------------------|
In the few places where the notes are not in groups of three
(example below), each single group of notes has the same time value as
one of the above triplets.
e|---------------------|---------------------|---------------------|
B|--0---------------1--|--3---------------3--|--1---------------0--|
G|--0------------------|------------------0--|------------------0--|
D|----------4-------2--|--4-------2----------|--2-------4----------|
A|---------------------|---------------------|---------------------|
E|---------------------|---------------------|---------------------|
                       Enjoy


© Авторские права на тексты, песни, видео и другую представленную информацию принадлежат правообладателям. Аккорды, табы, gtp и тексты песен взяты из открытых источников.
Возрастная категория сайта: 18+
Тексты некоторых песен могут содержать нецензурные выражения, брань.
© 2020 guitar-chords.ru