There are at least three guitar parts in the studio version:  distorted
guitar mainly on the left channel (moved to center for the intro), a
brighter cleaner rhythm guitar on the right channel, and slightly distorted
guitar through a Leslie speaker that begins after the first bridge and
covers up most of the distorted guitar on the left channel.

intro:        
------------------------
------------------------
--2---2---2---------2---
--2---2------2--h4------
--0---0-----------------
------------------------

verse:        
-------------------------------------------------
-------------------------------------------------
--2---2---2-----------2---2--2---2-----------2---
--2---2-------2--h4-------2--2-------2--h4-------
--0---0-------------------0--0-------------------
-------------------------------------------------
  A 
-------------------------------------------------
-------------------------------------------------
--4---4---4-----------2---4--4---4-----------2---
--4---4-------2--h4-------4--4-------2--h4-------
--2---2-------------------2--2-------------------
-------------------------------------------------
  Bm 
                  *
--2---0---2---0-------------------------------0---
--3---0---3---0-------------------------------0---
--2---1---2---1-------2---2---2-----------2---1---
--0---2---0---2-------2---2-------2--h4-------2---
------2-------2-------0---0-------------------2---
------0-------0-------------------------------0---
  D   E   D   E       A                       E 
repeat, second time at * continue:
----------------------0-------------------------------
------2-------3-------2-------3-------2-------0-------
--2---2---2---2---2---2---2---2---2---2---2---2---2---
--2---2---2---2---2---2---2---2---2---2---2---2---2---
--0---0---0---0---0---0---0---0---0---0---0---0---0---
------------------------------------------------------
  A 

bridge:        
---------------------2-------
---5-----4---3---2---1---3---
---2-----2---1---0---2---4---
---2-----4---2---2---0---4---
---4-----2---2---0-------2---
---2---------0---------------
   F#m7  B7  E7  A7  D7  Bm 
----------------------0-------------------------------
------2-------3-------2-------3-------2-------0-------
--2---2---2---2---2---2---2---2---2---2---2---2---2---
--2---2---2---2---2---2---2---2---2---2---2---2---2---
--0---0---0---0---0---0---0---0---0---0---0---0---0---
------------------------------------------------------
  A 
---------------------2-------
---5-----4---3---2---1---3---
---2-----2---1---0---2---4---
---2-----4---2---2---0---4---
---4-----2---2---0-------2---
---2---------0---------------
   F#m7  B7  E7  A7  D7  Bm 

--------------------------------------
--------------------------------------
--------------------------------------
--5---5---5---5---5---5---5---5---2---
--5---5---5---5---5---5---5---5---2---
--3---3---3---3---3---3---3---3---0---
  G                               E 

verse - Leslie guitar
----------------------0-------------------------------
------2-------3-------2-------3-------2-------0-------
--2---2---2---2---2---2---2---2---2---2---2---2---2---
--2---2---2---2---2---2---2---2---2---2---2---2---2---
--0---0---0---0---0---0---0---0---0---0---0---0---0---
------------------------------------------------------
  A 
-----------------------2----------------------------------
-------3-------5-------3-------5-------3-------2----------
---4---4---4---4---4---4---4---4---4---4---4---4---4---4--
---4---4---4---4---4---4---4---4---4---4---4---4---4---4--
---2---2---2---2---2---2---2---2---2---2---2---2---2---2--
----------------------------------------------------------
   Bm 
---2---0---2---0---
---3---0---3---0---
---2---1---2---1---
---0---2---0---2---
-------2-------2---
-------0-------0---
   D   E   D   E 
----------------------0-------------------------------
------2-------3-------2-------3-------2-------0-------
--2---2---2---2---2---2---2---2---2---2---2---2---2---
--2---2---2---2---2---2---2---2---2---2---2---2---2---
--0---0---0---0---0---0---0---0---0---0---0---0---0---
------------------------------------------------------
  A 
lick on the D E D E  part near end
------------------------------------------------------------------
------------------------------------------------------------------
------------2-------------------------------2---------------------
---0---/4--------------------------0---/4-------------------------
-------------------------2-------------------------------2--------
----------------0---/4-------4------------------0---/4--------4---
lick on G  part the 2nd time
-------------------------------------------
-------------------------------------------
-------------------------------------------
---5---5---5---5-----------------------2---
---5---5---5---5--------5--------------2---
---3---3---3---3---/7-------7----/3----0---

Другие песни этого исполнителя/группы


© Авторские права на тексты, песни, видео и другую представленную информацию принадлежат правообладателям. Аккорды, табы, gtp и тексты песен взяты из открытых источников.
Возрастная категория сайта: 18+
Тексты некоторых песен могут содержать нецензурные выражения, брань.
© 2020 guitar-chords.ru