I can't think straight

intro:        
E:------------------------------------------------------------------------
B:------------------------------------------------------------------------
G:------------------------------------------------------------------------
D:------------------------------------------------------------------------
A:--6--8--6--8--6--8-11-11-10--6--8--6--8--6--8--13--13--13---
E:--4--6--4--6--4--6---9--9--8---4--6--4--6--4--6---11--11--11--

E:--------------------------------------
B:--------------------------------------
G:--------------------------------------
D:--------------------------------------
A:-10-10-10-10--10-10-10--10----
E:---8--8---8--8---8---8---8---8----
"Good evening ladies", repeat a few
E:---------------------------------
B:---------------------------------
G:---------------------------------
D:---------------------------------
A:---------------------------------
E:--3--3--9--9--1--1--5--5--5--
end
E:----------
B:----------
G:----------
D:---------
A:--6--8--
E:--4--6--

© Авторские права на тексты, песни, видео и другую представленную информацию принадлежат правообладателям. Аккорды, табы, gtp и тексты песен взяты из открытых источников.
Возрастная категория сайта: 18+
Тексты некоторых песен могут содержать нецензурные выражения, брань.
© 2020 guitar-chords.ru