Инструмент: Гитара (6-ти струнная) поменять
Строй: Standart (E A D G B E) поменять
Без каподастра поменять

Main riff goes like this:
    A           A-7        D           D/F 
|---------------------------|---------------------------|
|-----------17------17------|----------17-----15p14-----|
|-------14--------------14--|------14---------------14--|
|---14----------17----------|--16----------15-----------|
|---------------------------|---------------------------|
|---------------------------|---------------------------|

These are just permutations of an A  chord so you could play this down
on the second fret if you have an acoustic guitar. On electric, this riff
sounds really good when it sustains.

Follow the pattern or play the chords for the verse:

  A         A-7       D         D/F 
Picture yourself in a boat on a river 
       A       A-7        D        D/F ---  G 
With tangerine trees and marmalade skies
   A      A-7           D            D/F 
Somebody calls you, you answer quite slowly
  A             A-7      F#m --- Dm --- C 
A girl with kaleidiscope eyes

PRECHORUS:    
    Bb                      C                   F                  Bb 
   Cellophane  flowers  of  yellow and green    towering over your head
                            (slow bend)
e|-------------------------------------------|----------------------------|
b|-------------------------------------------|----------------------------|
g|--5^w-5^w-5^w-5^w-5^w-5^w---5^1/2--5^w-5^w-|-5^w-5^w-5^w-5^w-5^w-5^w-5\3|

   C                          G                            D 
   Look for the girl with the sun  in  her  eyes and she's gone

e|---------------------------------------------------------|--------------|
b|---------------------------------------------------------|--------------|
g|--5^w-5^w--5^w--5^w--5^w--5^w-5^w-5^w-5^w--5^w---5---4---|--2-----------|

    G           C        D          G           C        D 
CHORUS:        
Lucy in the Sky with Diamonds.  Lucy in the Sky with Diamonds
    G           C        D          D --- A 
Lucy in the Sky with Diamonds.  Ahhhhhhhhhhhh.

To make D/F  chord:
    D/F 
|-----0----|
|-----3----|
|-----2----|
|-----3----|
|-----x----|
|-----x----|

^w  -  means whole bend
^1/2 - means half bend

------------------------------------------
cut here
------------------------------------------

Here is how I play it: (not like the above)

|--------12-------12-----------12---------9-8-------|
|----10----------------9-----------9-----------9----|
|-9-----------12----------10-----------9------------|
|---------------------------------------------------|
|---------------------------------------------------|
|---------------------------------------------------|

I think that's right. It's off the top of my head,
no guitar in front of me.

Good luck!

            

© Авторские права на тексты, песни, видео и другую представленную информацию принадлежат правообладателям. Аккорды, табы, gtp и тексты песен взяты из открытых источников.
Возрастная категория сайта: 18+
Тексты некоторых песен могут содержать нецензурные выражения, брань.
© 2021 guitar-chords.ru