This is the song Something, the version on Anthology 3.
This is in a different key than the famous one on Abbey
Road. This is by George Harrison. Here it is:

INTRO:        
  (A )                  (A )                    (D )      (C ) (E )
|--------------------|--------------------|----2--5--2--3---4--|
|--------------------|--------------------|----3--------5---5--|
|--------------------|--------------------|----2--------5---4--|
|--------------------|--------------------|--0----------5---6--|
|--------------------|--------------------|-------------3---7--|
|--------------------|--------------------|--------------------|

VERSE:        
  (A )                  (Amaj7 )              (A7 )                 (D )
||--------------------|--------------------|--------------------|--------------------|
||--------------------|--------------------|--------------------|--------------------|
||--------------------|--------------------|--------------------|--------------------|
||--------------------|--------------------|--------------------|-0----------0-------|
||--------------------|--------------------|--------------------|----------------4---|
||--------------------|--------------------|--------------------|--------------------|

 (B )        (B7 )       (E )                 (F#m )    (F#maj7 )
(F#m7 )     (B7 )     (D )       (C )(E )
|--------------------|--0------0-------0--|--------------------|--------------------|---2--5-2--3--4--||
|--------------------|--0------0-------0--|--------------------|--------------------|---3-------5--5--||
|--------------------|--1------2-------4--|--------------------|--------------------|---2-------5--4--||
|--------------------|--2--2/4-4--4/6--6--|--------------------|--------------------|-0---------5--6--||
|--2-----------------|--2------0-------0--|--------------------|--------------------|-----------3--7--||
|--------------------|--0------0-------0--|--------------------|--------------------|-----------------||

VERSE:        
 (F# )     (F#maj7 )    (F#13 )    (F# )        (B )      (E )        (F# )
|--------------------|--------------------|--------------------|--------------------|
|--------------------|--------------------|--------------------|--------------------|
|--------------------|--------------------|--------------------|--------------------|
|--------------------|--------------------|--------------------|-----3--2--1--0-----|
|--------------------|--------------------|--------------------|-----------------4--|
|--------------------|--------------------|--------------------|--------------------|

 (F# )     (F#maj7 )    (F#13 )    (F# )        (B )      (E )        (A )
|--------------------|--------------------|--------------------|--------------------|
|--------------------|--------------------|--------------------|--------------------|
|--------------------|--------------------|--------------------|-----1--0-----------|
|--------------------|--------------------|--------------------|-----------4--3--2--|
|--------------------|--------------------|--------------------|--------------------|
|--------------------|--------------------|--------------------|--------------------|

CLOSING VERSE:      (A )                 (Amaj7 )               (A7 )                 (D )
|--5-----------------|---4----------------|--3-----------------|--------0--2--3--2--|
|--2-----------------|---2----------------|--2-----------------|--------3--3--3--3--|
|--2-----------------|---2----------------|--2-----------------|--------2--2--2--2--|
|--2-----------------|---2----------------|--2-----------------|--------0--0--0--0--|
|--0-----------------|---0----------------|--0-----------------|--------------------|
|--------------------|--------------------|--------------------|--------------------|

 (B7 )                   (E )                  (F#m )    (F#maj7 )
(F#m7 )    (B7 )
|--2-------4-------2--|--0-------0-------0--|--------------------|--------------------|
|--0------------------|--0-------0-------0--|--------------------|--------------------|
|--2--2/4-----4\2-----|--1-------2-------4--|--------------------|--------------------|
|--1------------------|--2--2/4--4--4/6--6--|--------------------|--------------------|
|--2------------------|--2-------0-------0--|--------------------|--------------------|
|---------------------|--0-------0-------0--|--------------------|--------------------|

  (D )        (C ) (E ) (A )
|-----2-5-2---3---4---9---|
|-----3-------5---5---10--|
|-----2-------5---4---9---|
|--0----------5---6---11--|
|-------------3---7---12--|
|-------------------------|

CHORDS:        
A  - X02220 and X02225 and X-12-11-9-10-9
D  - XX0232
C  - X35553
E  - 022100 and X76454
Amaj7  - X02120 and X02224
A7  - X02020 and X02223
D  - XX0232
B  - X24442
B7  - X21202
F#  - 244322
F#m  - 244222
F#maj7  - 243222
F#m7  - 242222


© Авторские права на тексты, песни, видео и другую представленную информацию принадлежат правообладателям. Аккорды, табы, gtp и тексты песен взяты из открытых источников.
Возрастная категория сайта: 18+
Тексты некоторых песен могут содержать нецензурные выражения, брань.
© 2020 guitar-chords.ru