#табулатура

    
Gepetto

For the intro, guitar I (slightly distorted) plays figure (1) 8 times
before the bass and drums and guitar II (clean) enter.
Figure (1)
     D       D   D 
e |--2-2-0h2-2-3-2-2-2p0-0---|
b |--3-3-3---3-3-3-3-3---3---|
g |--2-2-2---2-2-2-2-2---2---|
D |--0-0-0---0-0-0-0-0---0---|
A |--------------------------|
E |--------------------------|
For the verse, guitar I plays a similar figure to (1) like this...
Figure (2)
     D       D   D              D       D   D 
e |--2-2-0h2-2-3-2-2-2p0-0---|--2-2-0h2-2-3-2-2-2p0-0---|
b |--3-3-3---3-3-3-3-3---3---|--3-3-3---3-3-3-3-3---3---|
g |--2-2-2---2-2-2-2-2---2---|--2-2-2---2-2-2-2-2---2---|
D |--0-0-0---0-0-0-0-0---0---|--0-0-0---0-0-0-0-0---0---|
A |--------------------------|--------------------------|
E |--------------------------|--------------------------|
     D                   D 
e |--2-2-2-2-2-2-2-2--|--2-2-2-2-2-2-2-2--|
b |--3-3-3-3-3-3-3-3--|--3-3-3-3-3-3-3-3--|
g |--2-2-2-2-2-2-2-2--|--2-2-2-2-2-2-2-2--|
D |--0-0-0-0-0-0-0-0--|--0-0-0-0-0-0-0-0--|
A |-------------------|-------------------|
E |-------------------|-------------------|
While guitar II plays...
                                          let ring........
     D         D         D         D          D       D 
e |--2-2-2-2-3-2-2-0--|--2-2-2-2-3-2-2-0--|---2---|--(2)--|
b |--3-3-3-3-3-3-3-3--|--3-3-3-3-3-3-3-3--|---3---|--(3)--|
g |--2-2-2-2-2-2-2-2--|--2-2-2-2-2-2-2-2--|---2---|--(2)--|
D |--0-0-0-0-0-0-0-0--|--0-0-0-0-0-0-0-0--|---0---|--(0)--|
A |-------------------|-------------------|-------|-------|
E |-------------------|-------------------|-------|-------|
On the last line of the verse Guitar I plays...
                                                        let ring.........
e |--2-2-0h2-2-3-2-2-2p0-0---|--2-2-0h2-2-3-2-2-2p0-0---|---3---|--(3)--|
b |--3-3-3---3-3-3-3-3---3---|--3-3-3---3-3-3-3-3---3---|---0---|--(0)--|
g |--2-2-2---2-2-2-2-2---2---|--2-2-2---2-2-2-2-2---2---|---0---|--(0)--|
D |--0-0-0---0-0-0-0-0---0---|--0-0-0---0-0-0-0-0---0---|---0---|--(0)--|
A |--------------------------|--------------------------|---2---|--(2)--|
E |--------------------------|--------------------------|---3---|--(3)--|
   let ring........
e |---0---|--(0)--|
b |---2---|--(2)--|
g |---2---|--(2)--|
D |---2---|--(2)--|
A |---0---|--(0)--|
E |-------|-------|
While guitar II plays...
                                           w/palm muting...............
e |--2-2-2-2-3-2-2-0--|--2-2-2-2-3-2-2-0--|------------------|---------|
b |--3-3-3-3-3-3-3-3--|--3-3-3-3-3-3-3-3--|------------------|---------|
g |--2-2-2-2-2-2-2-2--|--2-2-2-2-2-2-2-2--|------------------|--0-//---|
D |--0-0-0-0-0-0-0-0--|--0-0-0-0-0-0-0-0--|-0-0-0-0-0-0-0-0--|---//-0--|
A |-------------------|-------------------|-2-2-2-2-2-2-2-2--|---------|
E |-------------------|-------------------|-3-3-3-3-3-3-3-3--|---------|
   w/palm muting................
e |------------------|---------|
b |------------------|---------|
g |--2-2-2-2-2-2-2-2-|--0-//---|
D |--2-2-2-2-2-2-2-2-|---//-0--|
A |--0-0-0-0-0-0-0-0-|---------|
E |------------------|---------|

Here are the lyrics as I think them to be...

So he's lying on top again,
Just like Gepetto and his doll,
And he's runnin' around again,
And I can't get him outta' this house,
And if you bore him, lose your soul to me,
So that kid from the bad home came over my house again,
Decapitated all my dolls,
And if you bore me, lose your soul to me,
Hey Gepetto, where'd you put it?
Hey Gepetto, oh oh,
Hey gepetto where'd you put it?
hey Gepetto, oh oh,
And if you bore him you're gonna lose your soul,
Hey Gepetto, where'd you get to?
Hey Gepetto, oh oh,
Hey Gepetto, where'd you get to?
Hey Gepetto, oh oh,

Hey Gepetto, what'd you get me?
Hey Gepetto, oh oh,
So he's lying on top again,
Just like Gepetto,
Shad a la la, shad a la la...

© Авторские права на тексты, песни, видео и другую представленную информацию принадлежат правообладателям. Аккорды, табы, gtp и тексты песен взяты из открытых источников.
Возрастная категория сайта: 18+
Тексты некоторых песен могут содержать нецензурные выражения, брань.
© 2020 guitar-chords.ru