Горячая Кровь

Official version

Вступление и концовка:
соло
вступление играть c первого такта и до последнего
                                    концовку сразу отсюда
E||---------------|---------------|-----------------------|-----------------------|-----------------------|
B||---------------|---------------|-----------------------|-----------------------|-----------------------|
G||---------------|---------------|--0--0--5--4------2----|--0--0--5--4------2----|--0--0--5--4------2----|
D||---------------|---------------|-----------------------|-----------------------|-----------------------|
A||---------------|---------------|-----------------------|-----------------------|-----------------------|
E||---------------|---------------|-----------------------|-----------------------|-----------------------|

-----------------------|-----------------------|-----------------------|--------------------------|
-----------------------|-----------------------|-----------------------|--------------------------|
--7--7--5--4------2----|--0--0--5--4------2----|--0--0--5--4------2----|--0--0--2--0--4--0--5--0--|
-----------------------|-----------------------|-----------------------|--------------------------|
-----------------------|-----------------------|-----------------------|--------------------------|
-----------------------|-----------------------|-----------------------|--------------------------|
     в концовке тут тишина
--------------------------|-----------------------|-----------------------|-----------------------|
--------------------------|-----------------------|-----------------------|-----------------------|
--7--0--5--0--4--0--2--0--|--0--0--5--4------2----|--0--0--5--4------2----|--0--0--5--4------2----|
--------------------------|-----------------------|-----------------------|-----------------------|
--------------------------|-----------------------|-----------------------|-----------------------|
--------------------------|-----------------------|-----------------------|-----------------------|

-------------------------|-----------------------|-----------------------|--------------------------|
-------------------------|-----------------------|-----------------------|--------------------------|
--7--7--5--4----5--4--2--|--0--0--5--4------2----|--0--0--5--4------2----|--7--7--5--5--4--4--2--2--|
-------------------------|-----------------------|-----------------------|--------------------------|
-------------------------|-----------------------|-----------------------|--------------------------|
-------------------------|-----------------------|-----------------------|--------------------------|

--------------------------|-------------------|
--------------------------|-------------------|
--5--5--4--4--2--2--4--4--|--0----------------|
--------------------------|-------------------|
--------------------------|-------------------|
--------------------------|-------------------|
ритм-гитара
вступление играть c первого такта и до последнего
                                           a концовку отсюда...
     C                   D                   G                   D                   Em 
E||-------------------|-------------------|--3----------------|-------------------|--0----------------|
B||-------------------|-------------------|--3----------------|-------------------|--0----------------|
G||--5----------------|--7----------------|--4----------------|--7----------------|--0----------------|
D||--5----------------|--7----------------|--5----------------|--7----------------|--2----------------|
A||--3----------------|--5----------------|--5----------------|--5----------------|--2----------------|
E||--3----------------|--5----------------|--3----------------|--5----------------|--0----------------|
  C                   G                          D                          Em 
-------------------|--------------------------|--------------------------|--------------------------|
-------------------|--------------------------|--------------------------|--------------------------|
--5----------------|--4--4--4--4--4--4--4--4--|--7--7--7--7--7--7--7--7--|--0--0--0--0--0--0--0--0--|
--5----------------|--5--5--5--5--5--5--5--5--|--7--7--7--7--7--7--7--7--|--2--2--2--2--2--2--2--2--|
--3----------------|--5--5--5--5--5--5--5--5--|--5--5--5--5--5--5--5--5--|--2--2--2--2--2--2--2--2--|
--3----------------|--3--3--3--3--3--3--3--3--|--5--5--5--5--5--5--5--5--|--0--0--0--0--0--0--0--0--|
    в концовке тут тишина
  C                          G                          D                          Em 
--------------------------|--------------------------|--------------------------|--------------------------|
--------------------------|--------------------------|--------------------------|--------------------------|
--5--5--5--5--5--5--5--5--|--4--4--4--4--4--4--4--4--|--7--7--7--7--7--7--7--7--|--0--0--0--0--0--0--0--0--|
--5--5--5--5--5--5--5--5--|--5--5--5--5--5--5--5--5--|--7--7--7--7--7--7--7--7--|--2--2--2--2--2--2--2--2--|
--3--3--3--3--3--3--3--3--|--5--5--5--5--5--5--5--5--|--5--5--5--5--5--5--5--5--|--2--2--2--2--2--2--2--2--|
--3--3--3--3--3--3--3--3--|--3--3--3--3--3--3--3--3--|--5--5--5--5--5--5--5--5--|--0--0--0--0--0--0--0--0--|
  C                          G                          D                          Em 
--------------------------|--------------------------|--------------------------|--------------------------|
--------------------------|--------------------------|--------------------------|--------------------------|
--5--5--5--5--5--5--5--5--|--4--4--4--4--4--4--4--4--|--7--7--7--7--7--7--7--7--|--0--0--0--0--0--0--0--0--|
--5--5--5--5--5--5--5--5--|--5--5--5--5--5--5--5--5--|--7--7--7--7--7--7--7--7--|--2--2--2--2--2--2--2--2--|
--3--3--3--3--3--3--3--3--|--5--5--5--5--5--5--5--5--|--5--5--5--5--5--5--5--5--|--2--2--2--2--2--2--2--2--|
--3--3--3--3--3--3--3--3--|--3--3--3--3--3--3--3--3--|--5--5--5--5--5--5--5--5--|--0--0--0--0--0--0--0--0--|
...последний такт концовки + G 
  C                          G                        C          D             G 
--------------------------|------------------------|------------------------|------------------------|
--------------------------|------------------------|------------------------|------------------------|
--5--5--5--5--5--5--5--5--|------------------------|--5--5----5--7--7----7--|------------------------|
--5--5--5--5--5--5--5--5--|--5--5----5--5--5----5--|--5--5----5--7--7----7--|--5--5----5--5--5----5--|
--3--3--3--3--3--3--3--3--|--5--5----5--5--5----5--|--3--3----3--5--5----5--|--5--5----5--5--5----5--|
--3--3--3--3--3--3--3--3--|--3--3----3--3--3----3--|--3--3----3--5--5----5--|--3--3----3--3--3----3--|
    C        D         G                        C          D             G 
--------------------|------------------------|------------------------|------------------------|
--------------------|------------------------|------------------------|------------------------|
----5--------7------|------------------------|--5--5----5--7--7----7--|------------------------|
----5--------7------|--5--5----5--5--5----5--|--5--5----5--7--7----7--|--5--5----5--5--5----5--|
----3--------5------|--5--5----5--5--5----5--|--3--3----3--5--5----5--|--5--5----5--5--5----5--|
----3--------5------|--3--3----3--3--3----3--|--3--3----3--5--5----5--|--3--3----3--3--3----3--|
  D 
-------------------||
-------------------||
-------------------||
--4----------------||
--5----------------||
--2----------------||

Куплет
     G                        D                        Em                       C 
E||------------------------|------------------------|------------------------|------------------------|
B||------------------------|------------------------|------------------------|------------------------|
G||------------------------|--7--7----7--7--7----7--|--0--0----0--0--0----0--|--5--5----5--5--5----5--|
D||--5--5----5--5--5----5--|--7--7----7--7--7----7--|--2--2----2--2--2----2--|--5--5----5--5--5----5--|
A||--5--5----5--5--5----5--|--5--5----5--5--5----5--|--2--2----2--2--2----2--|--3--3----3--3--3----3--|
E||--3--3----3--3--3----3--|--5--5----5--5--5----5--|--0--0----0--0--0----0--|--3--3----3--3--3----3--|
  G                        D                        Em                       C 
------------------------|------------------------|------------------------|------------------------|
------------------------|------------------------|------------------------|------------------------|
------------------------|--7--7----7--7--7----7--|--0--0----0--0--0----0--|--5--5----5--5--5----5--|
--5--5----5--5--5----5--|--7--7----7--7--7----7--|--2--2----2--2--2----2--|--5--5----5--5--5----5--|
--5--5----5--5--5----5--|--5--5----5--5--5----5--|--2--2----2--2--2----2--|--3--3----3--3--3----3--|
--3--3----3--3--3----3--|--5--5----5--5--5----5--|--0--0----0--0--0----0--|--3--3----3--3--3----3--|
  G                        D                        Bm                       Em 
------------------------|------------------------|------------------------|------------------------|
------------------------|------------------------|------------------------|------------------------|
------------------------|--7--7----7--7--7----7--|--4--4----4--4--4----4--|------------------------|
--5--5----5--5--5----5--|--7--7----7--7--7----7--|--4--4----4--4--4----4--|--2--2----2--2--2----2--|
--5--5----5--5--5----5--|--5--5----5--5--5----5--|--2--2----2--2--2----2--|--2--2----2--2--2----2--|
--3--3----3--3--3----3--|--5--5----5--5--5----5--|--2--2----2--2--2----2--|--0--0----0--0--0----0--|
  G                        D                       C        D           G 
------------------------|-----------------------|--------------------|-------------------|
------------------------|-----------------------|--------------------|-------------------|
------------------------|--7--7----7--7--7------|--5--------7--------|-------------------|
--5--5----5--5--5----5--|--7--7----7--7--7------|--5--------7--------|--5----------------|
--5--5----5--5--5----5--|--5--5----5--5--5------|--3--------5--------|--5----------------|
--3--3----3--3--3----3--|--5--5----5--5--5------|--3--------5--------|--3----------------|
Припев ("на-на-на"): } x8
     G        D           Em     C 
E||--------------------|--------------------|
B||--------------------|--------------------|
G||-----------7--------|--0------5----5--5--|
D||--5--------7--------|--2------5----5--5--|
A||--5--------5--------|--2------3----3--3--|
E||--3--------5--------|--0------3----3--3--|

© Авторские права на тексты, песни, видео и другую представленную информацию принадлежат правообладателям. Аккорды, табы, gtp и тексты песен взяты из открытых источников.
Возрастная категория сайта: 18+
Тексты некоторых песен могут содержать нецензурные выражения, брань.
© 2020 guitar-chords.ru