За краем ночи

intro+ первый куплет
e:-------------------------------------------------------------------
H:-------------------------------------------------------------------
G:---2-------2-------2-------2-------4-------4-------4--------4------ } 3 раза
D:-2---2---2---2---2---2---2---2---5---5---5---5---5---5---5---5-----
A:-------------------------------------------------------------------
E:-------------------------------------------------------------------

e:-------------------------------------------------------------------
H:-------------------------------------------------------------------
G:---5-------5-------5-------5-------4-------4--------4-------4------
D:-5---5---5---5---5---5---5---5---5---5---5----5---5---5---5---5----
A:-------------------------------------------------------------------
E:-------------------------------------------------------------------

e:-------------------------------------------------------------------
H:-------------------------------------------------------------------
G:---5-------5-------5-------5-------4-------4-----5?----------------
D:-5---5---5---5---5---5---5---5---5---5---5---5---5-----------------
A:-------------------------------------------------------------------
E:-------------------------------------------------------------------
Ты где то там
В других звездах
В других мирах
В других соснах
И твоя кошка
У твоих ног
Нет извинений
За краем ночи.
на глухих струнах C 
проигрыш 1
e:---------------------------------------------------------------------------
H:---------------------------------------------------------------------------
G:-0--0--0--5--5-5-5-3-0-------7--7--7--9--9--9--5--5-5-5-3-0--------7--7--7-
D:-2--2--2--5--5----------5-5--7--7--7--9--9--9--5--5----------5--5--7--7--7- } 2 раза
A:-2--2--2--3--3----------5-5--5--5--5--7--7--7--3--3----------5--5--5--5--5-
E:-0--0--0----------------3-3----------------------------------3--3----------

e:-----------------------
H:-----------------------
G:-9--9--9--5--5--5------
D:-9--9--9--5--5--5------
A:-7--7--7--3--3--3------
E:-----------------------

Куплет 2
e:-------------------12-------------------------12------
H:----------------------12-------------------------12---
G:------------0--------------------------0--------------
D:-7---x------2---------------7---x------2--------------
A:-7---x------2---------------7---x------2--------------
E:-5---x------0---------------5---x------0--------------

e:-------------------------------------------------------------------
H:-------------------------------------------------------------------
G:---5-------5-------5-------5-------4-------4--------4-------4------
D:-5---5---5---5---5---5---5---5---5---5---5----5---5---5---5---5----
A:-------------------------------------------------------------------
E:-------------------------------------------------------------------

e:--------------------------------------------
H:--------------------------------------------
G:---5-------5-------5-------5-----7-7-7-7----
D:-5---5---5---5---5---5---5---5---7-7-7-7----
A:---------------------------------5-5-5-5----
E:--------------------------------------------
В других числах
В друхих городах
В друхих стеклах
В друхих правилах
Все непонятно
И все так просто
Молчишь и куришь
И все не как всегда
refren:
e:--------------------------------------------------
H:--------------------------------------------------
G:-------------4---4-4-4---5---5-5-5---5---5-5-5----
D:-5---5-5-5---4---4-4-4---5---5-5-5---5---5-5-5----
A:-5---5-5-5---2---2-2-2---3---3-3-3---3---3-3-3----
E:-3---3-3-3---------------3---3-3-3-----------------
        Как     кора   -     бли
e:---------------------------------------------------
H:---------------------------------------------------
G:-------------5---5-5-5---0---0-0-0---7-7-7-7--5-5--
D:-5---5-5-5---5---5-5-5---2---2-2-2---7-7-7-7--5-5--
A:-5---5-5-5---3---3-3-3---2---2-2-2---5-5-5-5--3-3--
E:-3---3-3-3---------------0---0-0-0-----------------
       И        мая    -     ки
e:--------------------------------------------------
H:--------------------------------------------------
G:-------------4---4-4-4---5---5-5-5---5---5-5-5----
D:-5---5-5-5---4---4-4-4---5---5-5-5---5---5-5-5----
A:-5---5-5-5---2---2-2-2---3---3-3-3---3---3-3-3----
E:-3---3-3-3---------------3---3-3-3-----------------
        Мы      так           близки
e:---------------------------------------------------
H:---------------------------------------------------
G:-------------5---5-5-5---9---9-9-9---7-7-7-7--5-5--
D:-5---5-5-5---5---5-5-5---9---9-9-9---7-7-7-7--5-5--
A:-5---5-5-5---3---3-3-3---7---7-7-7---5-5-5-5--3-3--
E:-3---3-3-3-----------------------------------------
       И        да     -     леки
  Как корабли
  И маяки
  Мы так близки
  И далеки

to be continued... лень печатать)

© Авторские права на тексты, песни, видео и другую представленную информацию принадлежат правообладателям. Аккорды, табы, gtp и тексты песен взяты из открытых источников.
Возрастная категория сайта: 18+
Тексты некоторых песен могут содержать нецензурные выражения, брань.
© 2020 guitar-chords.ru