#табулатура

    
Или Любовь

Official version
Первый куплет:
ритм-гитара
                                               F#m                          D 
E||---------------------|-------------------|----------------------------|----------------------------|
B||---------------------|-------------------|----------------------------|----------------------------|
G||---------------------|-------------------|----------------------------|--7--7-7--7-7--7--7-7--7-7--|
D||--------------6---7--|--7----------------|--4--4-4--4-4--4--4-4--4-4--|--7--7-7--7-7--7--7-7--7-7--|
A||----------7----------|--7----------------|--4--4-4--4-4--4--4-4--4-4--|--5--5-5--5-5--5--5-5--5-5--|
E||---------------------|--5----------------|--2--2-2--2-2--2--2-2--2-2--|--5--5-5--5-5--5--5-5--5-5--|
  E                                                F#m                          D            E 
----------------------------|-------------------|----------------------------|----------------------------|
----------------------------|-------------------|----------------------------|----------------------------|
--9--9-9--9-9--9--9-9--9-9--|-------------------|----------------------------|--7--7-7--7-7--9--9-9--9-9--|
--9--9-9--9-9--9--9-9--9-9--|--7----------------|--4--4-4--4-4--4--4-4--4-4--|--7--7-7--7-7--9--9-9--9-9--|
--7--7-7--7-7--7--7-7--7-7--|--7----------------|--4--4-4--4-4--4--4-4--4-4--|--5--5-5--5-5--7--7-7--7-7--|
--7--7-7--7-7--7--7-7--7-7--|--5----------------|--2--2-2--2-2--2--2-2--2-2--|--5--5-5--5-5--7--7-7--7-7--|
  A            E 
----------------------------||
----------------------------||
---------------9--9-9--9-9--||
--7--7-7--7-7--9--9-9--9-9--||
--7--7-7--7-7--7--7-7--7-7--||
--5--5-5--5-5--7--7-7--7-7--||

Припев:
ритм-гитара } x2
     A                            F#m                          D                            E 
E||----------------------------|----------------------------|----------------------------|----------------------------||
B||----------------------------|----------------------------|----------------------------|----------------------------||
G||----------------------------|----------------------------|--7--7-7--7-7--7--7-7--7-7--|--9--9-9--9-9--9--9-9--9-9--||
D||--7--7-7--7-7--7--7-7--7-7--|--4--4-4--4-4--4--4-4--4-4--|--7--7-7--7-7--7--7-7--7-7--|--9--9-9--9-9--9--9-9--9-9--||
A||--7--7-7--7-7--7--7-7--7-7--|--4--4-4--4-4--4--4-4--4-4--|--5--5-5--5-5--5--5-5--5-5--|--7--7-7--7-7--7--7-7--7-7--||
E||--5--5-5--5-5--5--5-5--5-5--|--2--2-2--2-2--2--2-2--2-2--|--5--5-5--5-5--5--5-5--5-5--|--7--7-7--7-7--7--7-7--7-7--||

Соло №1 (после первого припева):
соло-гитара
E||------------------------|------------------------|----------------------------|----------------------------|
B||------------------------|------------------------|--3--3-2--2-----------------|--5--5-3--3-2---------------|
G||--2-------2-------2--4--|--2-------2-------2--4--|------------4--1--1-2--2-4--|---------------4--4-2--2-1--|
D||------2-------2---------|------4-------4---------|----------------------------|----------------------------|
A||------------------------|------------------------|----------------------------|----------------------------|
E||------------------------|------------------------|----------------------------|----------------------------|

------------------------|------------------------|----------------------------|--------------------||
------------------------|--2---3---2----------2--|--3--3-2--2----5--5-3--3-2--|--------------------||
--2-------2-------2--4--|--------------2---4-----|------------4---------------|--2-----------------||
------2-------2---------|------------------------|----------------------------|-----------2--------||
------------------------|------------------------|----------------------------|--------------------||
------------------------|------------------------|----------------------------|--------------------||
ритм-гитара } x2
     A                            F#m                          D            E               A            E 
E||----------------------------|----------------------------|----------------------------|----------------------------||
B||----------------------------|----------------------------|----------------------------|----------------------------||
G||----------------------------|----------------------------|--7--7-7--7-7--9--9-9--9-9--|---------------9--9-9--9-9--||
D||--7--7-7--7-7--7--7-7--7-7--|--4--4-4--4-4--4--4-4--4-4--|--7--7-7--7-7--9--9-9--9-9--|--7--7-7--7-7--9--9-9--9-9--||
A||--7--7-7--7-7--7--7-7--7-7--|--4--4-4--4-4--4--4-4--4-4--|--5--5-5--5-5--7--7-7--7-7--|--7--7-7--7-7--7--7-7--7-7--||
E||--5--5-5--5-5--5--5-5--5-5--|--2--2-2--2-2--2--2-2--2-2--|--5--5-5--5-5--7--7-7--7-7--|--5--5-5--5-5--7--7-7--7-7--||

Второй куплет:
ритм-гитара
                         F#m                          D                            E 
E||-------------------|----------------------------|----------------------------|----------------------------|
B||-------------------|----------------------------|----------------------------|----------------------------|
G||-------------------|----------------------------|--7--7-7--7-7--7--7-7--7-7--|--9--9-9--9-9--9--9-9--9-9--|
D||--7----------------|--4--4-4--4-4--4--4-4--4-4--|--7--7-7--7-7--7--7-7--7-7--|--9--9-9--9-9--9--9-9--9-9--|
A||--7----------------|--4--4-4--4-4--4--4-4--4-4--|--5--5-5--5-5--5--5-5--5-5--|--7--7-7--7-7--7--7-7--7-7--|
E||--5----------------|--2--2-2--2-2--2--2-2--2-2--|--5--5-5--5-5--5--5-5--5-5--|--7--7-7--7-7--7--7-7--7-7--|
                       F#m                          D            E               A            E 
--------------------|----------------------------|----------------------------|----------------------------||
--------------------|----------------------------|----------------------------|----------------------------||
--14----------------|----------------------------|--7--7-7--7-7--9--9-9--9-9--|---------------9--9-9--9-9--||
--14----------------|--4--4-4--4-4--4--4-4--4-4--|--7--7-7--7-7--9--9-9--9-9--|--7--7-7--7-7--9--9-9--9-9--||
--12----------------|--4--4-4--4-4--4--4-4--4-4--|--5--5-5--5-5--7--7-7--7-7--|--7--7-7--7-7--7--7-7--7-7--||
--------------------|--2--2-2--2-2--2--2-2--2-2--|--5--5-5--5-5--7--7-7--7-7--|--5--5-5--5-5--7--7-7--7-7--||

Соло №2 (после второго припева):
соло-гитара
E||-----------------------------|-----------------------------|-----------------------------|------------------------|
B||-----------------------------|-----------------------------|-----------------------------|------------------------|
G||--6--6-6-6-6-6-6-4--6--7--6--|--6--6-6-6-6-6-6-4--6--7--6--|--6--6-6-6-6-6-6-4--6--7--6--|------------------------|
D||-----------------------------|-----------------------------|-----------------------------|--7----7-9-7-6----------|
A||-----------------------------|-----------------------------|-----------------------------|---------------7--------|
E||-----------------------------|-----------------------------|-----------------------------|------------------------|

---------------------------------------------|---------------------------------------------|
--10-9-10-12-10-9-10-12-10-9-10-12-10-9-10-9-|---------------------------------------------|
---------------------------------------------|--11-9-11-13-11-9-11-13-11-9-11-13-11-9-11-9-|
---------------------------------------------|---------------------------------------------|
---------------------------------------------|---------------------------------------------|
---------------------------------------------|---------------------------------------------|

-----------------------------|----------------------||
--0--0-0-2--2-2-3--3-2--2-3--|--5--------3---2---0--||
-----------------------------|----------------------||
-----------------------------|----------------------||
-----------------------------|----------------------||
-----------------------------|----------------------||
ритм-гитара
     A                            F#m                          D            E               A            E 
E||----------------------------|----------------------------|----------------------------|----------------------------|
B||----------------------------|----------------------------|----------------------------|----------------------------|
G||----------------------------|----------------------------|--7--7-7--7-7--9--9-9--9-9--|---------------9--9-9--9-9--|
D||--7--7-7--7-7--7--7-7--7-7--|--4--4-4--4-4--4--4-4--4-4--|--7--7-7--7-7--9--9-9--9-9--|--7--7-7--7-7--9--9-9--9-9--|
A||--7--7-7--7-7--7--7-7--7-7--|--4--4-4--4-4--4--4-4--4-4--|--5--5-5--5-5--7--7-7--7-7--|--7--7-7--7-7--7--7-7--7-7--|
E||--5--5-5--5-5--5--5-5--5-5--|--2--2-2--2-2--2--2-2--2-2--|--5--5-5--5-5--7--7-7--7-7--|--5--5-5--5-5--7--7-7--7-7--|
  A                            F#m                          Hm                           E 
----------------------------|----------------------------|----------------------------|----------------------------||
----------------------------|----------------------------|----------------------------|----------------------------||
----------------------------|----------------------------|--4--4-4--4-4--4--4-4--4-4--|--1--1-1--1-1--1--1-1--1-1--||
--7--7-7--7-7--7--7-7--7-7--|--4--4-4--4-4--4--4-4--4-4--|--4--4-4--4-4--4--4-4--4-4--|--2--2-2--2-2--2--2-2--2-2--||
--7--7-7--7-7--7--7-7--7-7--|--4--4-4--4-4--4--4-4--4-4--|--2--2-2--2-2--2--2-2--2-2--|--2--2-2--2-2--2--2-2--2-2--||
--5--5-5--5-5--5--5-5--5-5--|--2--2-2--2-2--2--2-2--2-2--|--2--2-2--2-2--2--2-2--2-2--|--0--0-0--0-0--0--0-0--0-0--||

Припев №3 (гитара + барабаны):
ритм-гитара
     A                              F#m                            D 
E||------------------------------|------------------------------|------------------------------|
B||------------------------------|------------------------------|------------------------------|
G||------------------------------|------------------------------|------7------7------7------7--|
D||------7------7------7------7--|------4------4------4------4--|------7------7------7------7--|
A||------7------7------7------7--|------4------4------4------4--|--5-5-5--5-5-5--5-5-5--5-5-5--|
E||--5-5-5--5-5-5--5-5-5--5-5-5--|--2-2-2--2-2-2--2-2-2--2-2-2--|------------------------------|
  E                              A                              F#m 
------------------------------|------------------------------|------------------------------|
------------------------------|------------------------------|------------------------------|
------9------9------9------9--|------------------------------|------------------------------|
------9------9------9------9--|------7------7------7------7--|------4------4------4------4--|
--7-7-7--7-7-7--7-7-7--7-7-7--|------7------7------7------7--|------4------4------4------4--|
------------------------------|--5-5-5--5-5-5--5-5-5--5-5-5--|--2-2-2--2-2-2--2-2-2--2-2-2--|
  D                              E 
------------------------------|-------------------------------||
------------------------------|-------------------------------||
------7------7------7------7--|------9------9--9--9-9-9-9-9-9-||
------7------7------7------7--|------9------9--9--9-9-9-9-9-9-||
--5-5-5--5-5-5--5-5-5--5-5-5--|--7-7-7--7-7-7--7--7-7-7-7-7-7-||
------------------------------|-------------------------------||

Окончание:
ритм-гитара
     A                            F#m                          D            E               A            E 
E||----------------------------|----------------------------|----------------------------|----------------------------|
B||----------------------------|----------------------------|----------------------------|----------------------------|
G||----------------------------|----------------------------|--7--7-7--7-7--9--9-9--9-9--|---------------9--9-9--9-9--|
D||--7--7-7--7-7--7--7-7--7-7--|--4--4-4--4-4--4--4-4--4-4--|--7--7-7--7-7--9--9-9--9-9--|--7--7-7--7-7--9--9-9--9-9--|
A||--7--7-7--7-7--7--7-7--7-7--|--4--4-4--4-4--4--4-4--4-4--|--5--5-5--5-5--7--7-7--7-7--|--7--7-7--7-7--7--7-7--7-7--|
E||--5--5-5--5-5--5--5-5--5-5--|--2--2-2--2-2--2--2-2--2-2--|--5--5-5--5-5--7--7-7--7-7--|--5--5-5--5-5--7--7-7--7-7--|
  A                            F#m                          D            E               A            E 
----------------------------|----------------------------|----------------------------|----------------------------|
----------------------------|----------------------------|----------------------------|----------------------------|
----------------------------|----------------------------|--7--7-7--7-7--9--9-9--9-9--|---------------9--9-9--9-9--|
--7--7-7--7-7--7--7-7--7-7--|--4--4-4--4-4--4--4-4--4-4--|--7--7-7--7-7--9--9-9--9-9--|--7--7-7--7-7--9--9-9--9-9--|
--7--7-7--7-7--7--7-7--7-7--|--4--4-4--4-4--4--4-4--4-4--|--5--5-5--5-5--7--7-7--7-7--|--7--7-7--7-7--7--7-7--7-7--|
--5--5-5--5-5--5--5-5--5-5--|--2--2-2--2-2--2--2-2--2-2--|--5--5-5--5-5--7--7-7--7-7--|--5--5-5--5-5--7--7-7--7-7--|
  A                   A 
-------------------|-------------------||
-------------------|-------------------||
-------------------|--6----------------||
--7----------------|--7----------------||
--7----------------|--7----------------||
--5----------------|--5----------------||

© Авторские права на тексты, песни, видео и другую представленную информацию принадлежат правообладателям. Аккорды, табы, gtp и тексты песен взяты из открытых источников.
Возрастная категория сайта: 18+
Тексты некоторых песен могут содержать нецензурные выражения, брань.
© 2020 guitar-chords.ru