Лида

Инструмент: гитара, труба

Примечание:
Куплет играется в слабую долю.
       Do the ska!
       1 2 3 4 5 6
Строй: E B G D A E

Вступление:    
|----------------------------------|----------------------------------|
|----------------------------------|----------------------------------|
|--5-5-5-5-5-5-5-5-5-5-5-5-5-5-5-5-|----------------------------------|
|--5-5-5-5-5-5-5-5-5-5-5-5-5-5-5-5-|--5-5-5-5-5-5-5-5-5-5-5-5-5-5-5-5-|
|--3-3-3-3-3-3-3-3-3-3-3-3-3-3-3-3-|--5-5-5-5-5-5-5-5-5-5-5-5-5-5-5-5-|
|----------------------------------|--3-3-3-3-3-3-3-3-3-3-3-3-3-3-3-3-|

|----------------------------------|----------------------------------|
|----------------------------------|----------------------------------|
|----------------------------------|----------------------------------|
|--7-7-7-7-7-7-7-7-7-7-7-7-7-7-7-7-|--3-3-3-3-3-3-3-3-3-3-3-3-3-3-3-3-|
|--7-7-7-7-7-7-7-7-7-7-7-7-7-7-7-5-|--3-3-3-3-3-3-3-3-3-3-3-3-3-3-3-3-|
|--5-5-5-5-5-5-5-5-5-5-5-5-5-5-5-5-|--1-1-1-1-1-1-1-1-1-1-1-1-1-1-1-1-|

Куплет:        
|----------------------|------------------------|
|----------------------|------------------------|
|----5----5------------|------------------------|
|----5----5----5----5--|----7----7----15----15--|
|--------------5----5--|----7----7----15----15--|
|----------------------|------------------------|

Последний такт куплета:
|----------------------|
|----------------------|
|----------------------|
|----7----7--3----5----|
|----7----7--3----5----|
|------------1----3----|

Припев:
|----------------------------------|----------------------------------|
|----------------------------------|----------------------------------|
|--5-5-5-5-5-5-5-5-----------------|----------------------------------|
|--5-5-5-5-5-5-5-5-5-5-5-5-5-5-5-5-|--7-7-7-7-7-7-7-7-3-3-3-3-3-3-3-3-|
|--3-3-3-3-3-3-3-3-5-5-5-5-5-5-5-5-|--7-7-7-7-7-7-7-7-3-3-3-3-3-3-3-3-|
|------------------3-3-3-3-3-3-3-3-|--5-5-5-5-5-5-5-5-1-1-1-1-1-1-1-1-|

Последний аккорд:
|-------------------|
|-------------------|
|--5----------------|
|--5----------------|
|--3----------------|
|-------------------|

Соло в начале:    |--------------------------|--------------------------|
|-----------8----6----5----|-----------8----6---5-----|
|--5-----------------------|--7-----------------------|
|--------------------------|--------------------------|
|--------------------------|--------------------------|
|--------------------------|--------------------------|

|--------------------------|--------------------------|
|-----------8----6----5----|--6--------5----6----5----|
|--5-----------------------|--------------------------|
|--------------------------|--------------------------|
|--------------------------|--------------------------|
|--------------------------|--------------------------|

Партия трубы в куплете:
|---------------------|----------------------|
|----------6--5-------|--------5--6--5-------|
|------------------5--|-------------------5--|
|---------------------|----------------------|
|---------------------|----------------------|
|---------------------|----------------------|

|------------------------|
|----5--6--5-----5--6----|
|-------------5----------|
|------------------------|
|------------------------|
|------------------------|

Партия трубы в припеве:
|--------------------|---------------------|
|-----------8--------|--10--------6--------|
|--5-----------------|---------------------|
|--------------------|---------------------|
|--------------------|---------------------|
|--------------------|---------------------|

|----------------------|--------------------------|--------------------|
|--5---------6------5--|-----8--6-5---6--5-----5--|-----------8--------|
|---------5------------|--5-----------------5-----|--5-----------------|
|----------------------|--------------------------|--------------------|
|----------------------|--------------------------|--------------------|
|----------------------|--------------------------|--------------------|

|---------------------|----------------------|-----------------------|
|--10--------6--------|--5---------6------5--|-----8--6-5------------|
|---------------------|---------5------------|--5-----------5--------|
|---------------------|----------------------|-----------------------|
|---------------------|----------------------|-----------------------|
|---------------------|----------------------|-----------------------|

Текст песни:

(1)        
Она не смотрит НТВ,
Она не смотрит PТР,
Узнаешь сто новостей, ты позвонишь если ей,
O-кей, компьютер, окей.

Припев:        
Лида, лида, синие глаза.
Лида, лида, небо - бирюза.

(2)        
На метро доедет домой,
Сестра доедет одна,
Сегодня в ноль часов начнется звездны дождь,
Она стоит y окна.

Припев:        
Лида, лида, синие глаза.
Лида, лида, небо - бирюза.

(3)        
Она не смотрит НТВ,
Она не смотрит PТР,
Узнаешь сто новостей, ты позвонишь если ей,
O-кей, компьютер, окей.


© Авторские права на тексты, песни, видео и другую представленную информацию принадлежат правообладателям. Аккорды, табы, gtp и тексты песен взяты из открытых источников.
Возрастная категория сайта: 18+
Тексты некоторых песен могут содержать нецензурные выражения, брань.
© 2020 guitar-chords.ru