#табулатура

    
Миллионер

Official version

Соло:
соло } x2
E||---------------------------|---------------------------|---------------------------|---------------------------|
B||---------------------------|---------------------------|---------------------------|---------------------------|
G||---------------------------|---------------------------|---------------------------|---------------------------|
D||---------------------------|---------------------------|---------------------------|---------------------------|
A||-------5--3--2--3--5-------|-------5--3--2--3--5-------|-------5--3--2--3--5-------|-------2-----3--2--0-------|
E||----3-----------------3----|----3-----------------3----|----3-----------------3----|----0-----0-----------3----|
ритм-гитара } x4
                                начинается c этого такта
     G           D              Em          C 
E||--------------------------|--------------------------|
B||--------------------------|--------------------------|
G||--------------7--7--7--7--|--------------5--5--5--5--|
D||--5--5--5--5--7--7--7--7--|--2--2--2--2--5--5--5--5--|
A||--5--5--5--5--5--5--5--5--|--2--2--2--2--3--3--3--3--|
E||--3--3--3--3--------------|--0--0--0--0--------------|

Куплет:
акустическая гитара } x3
     G            D               Em           C 
E||--3--3--3--3-3-2--2--2--2-2-|--0--0--0--0-0-0--0--0--0-0-|
B||--0--0--0--0-0-3--3--3--3-3-|--0--0--0--0-0-1--1--1--1-1-|
G||--0--0--0--0-0-2--2--2--2-2-|--0--0--0--0-0-0--0--0--0-0-|
D||--0--0--0--0-0-0--0--0--0-0-|--2--2--2--2-2-2--2--2--2-2-|
A||--2--2--2--2-2--------------|--2--2--2--2-2-3--3--3--3-3-|
E||--3--3--3--3-3--------------|--0--0--0--0-0--------------|
проигрыш
     G  G  G          D  D       Em Em Em         C  C 
E||---------------------------|---------------------------|
B||-----------x-x-x-x---------|-----------x-x-x-x---------|
G||-----------x-x-x-x-7--7----|-----------x-x-x-x-5--5----|
D||--5--5--5--x-x-x-x-7--7----|--2--2--2--x-x-x-x-5--5----|
A||--5--5--5--x-x-x-x-5--5----|--2--2--2--x-x-x-x-3--3----|
E||--3--3--3--x-x-x-x---------|--0--0--0--x-x-x-x---------|
вторая половина куплета } x3
     G          D             Em         C 
E||------------------------|------------------------|
B||------------------------|------------------------|
G||-------------------7----|-------------------5----|
D||--------5----------7----|--------2----------5----|
A||--------5----5--5--5----|--------2----3--3--3----|
E||--3--3--3---------------|--0--0--0---------------|
Проигрыш перед припевом (muted):
E||--------------------------|----------------------------|--------------------------|-------------------------|
B||--------------------------|----------------------------|--------------------------|-------------------------|
G||--------------------------|----------------------------|--------------------------|-------------------------|
D||--------------------------|----------------------------|--------------7--7--7--7--|-----------------5----5--|
A||--------------5--5--5--5--|--7--7--7--7--3--3--3-4-5-6-|--5--5--5--5--5--5--5--5--|--2--2--2--2--2--3----3--|
E||--3--3--3--3--------------|----------------------------|--3--3--3--3--------------|--0--0--0--0--0----------|

--------------------------|---------------------------|--------------------------|--------------------------|
--------------------------|---------------------------|--------------------------|--------------------------|
--------------------------|---------------------------|--------------------------|--------------------------|
--------------7--7--7--7--|--9--9--9--9--5--5--5--5-5-|--------------7--7--7--7--|-----------5--5--5--5--5--|
--5--5--5--5--5--5--5--5--|--7--7--7--7--3--3--3--3-3-|--5--5--5--5--5--5--5--5--|--2--2--2--3--3--3--3--3--|
--3--3--3--3--------------|---------------------------|--3--3--3--3--------------|--0--0--0-----------------|
Припев ("привет, я миллионер..."):
ритм-гитара } x4
     G           D              Em          C 
E||--------------------------|--------------------------|
B||--------------------------|--------------------------|
G||--------------7--7--7--7--|--------------5--5--5--5--|
D||--5--5--5--5--7--7--7--7--|--2--2--2--2--5--5--5--5--|
A||--5--5--5--5--5--5--5--5--|--2--2--2--2--3--3--3--3--|
E||--3--3--3--3--------------|--0--0--0--0--------------|
Соло в конце:
соло } x3
E||--------------------------|--------------------------|
B||--------------------------|--------------------------|
G||--------4-----------4-----|--------4--------5--4--2--|
D||--5--5-----5--5--5-----5--|--5--5-----5--5-----------|
A||--------------------------|--------------------------|
E||--------------------------|--------------------------|
ритм-гитара } x3
     G           D              Em          C 
E||--------------------------|--------------------------|
B||--------------------------|--------------------------|
G||--------------7--7--7--7--|-----------------5--5--5--|
D||--5--5--5--5--7--7--7--7--|--2--2--2--2--2--5--5--5--|
A||--5--5--5--5--5--5--5--5--|--2--2--2--2--2--3--3--3--|
E||--3--3--3--3--------------|--0--0--0--0--0-----------|
последние два такта:
соло
E||--------------------------|--------------------------||
B||--------------------------|--------------------------||
G||--------4-----------4-----|--------------------------||
D||--5--5-----5--5--5-----5--|--------------------------||
A||--------------------------|--------------------------||
E||--------------------------|--------------------------||
ритм-гитара
     G           D              Em 
E||--------------------------|--------------------------||
B||--------------------------|--------------------------||
G||--------------7--7--7--7--|--------------------------||
D||--5--5--5--5--7--7--7--7--|--2--2--2--2--------------||
A||--5--5--5--5--5--5--5--5--|--2--2--2--2--------------||
E||--3--3--3--3--------------|--0--0--0--0--------------||

© Авторские права на тексты, песни, видео и другую представленную информацию принадлежат правообладателям. Аккорды, табы, gtp и тексты песен взяты из открытых источников.
Возрастная категория сайта: 18+
Тексты некоторых песен могут содержать нецензурные выражения, брань.
© 2020 guitar-chords.ru